Oops, an error
Loading. Please wait.

Where Is She Tab

version 2
version 2

Intro

Whole song

844 views 1 this week
1 commentread comment
1 2 3 4 5
excellent!
x 1
add to favorites
launch autoscroll
font size
0
reset
how to read this tab
guitar tuner
Tab Pro tools
  • play this tab
  • loop segment
  • change instrument
  • show fretboard
  • metronome
Autoscroll
slow
fast
+/-
esc
set tempo
stop
-------------------------------------------------------------------------------
                  Where is she(soft surrender) - The Killers
-------------------------------------------------------------------------------
Tabbed by:Kiernan Salmon        
Email:Olimdavid@yahoo.com

Tuning:Standard

Keyboard intro

e|--8--7----------8--7-------------------------------------------------------|
B|--------8--10--------8--10-------------------------------------------------|
G|---------------------------------------------------------------------------|
D|---------------------------------------------------------------------------|
A|---------------------------------------------------------------------------|
E|---------------------------------------------------------------------------|

Lead intro
e|---------------------------------------------------------------------------|
B|---13-12-10-12--13-12-10-12--13-12-10--------------------------------------|
G|-------------------------------------12------------------------------------|
D|---------------------------------------------------------------------------|
A|---------------------------------------------------------------------------|
E|---------------------------------------------------------------------------|

e|-----------------------------10--------------------------------------------|
B|---13-12-10-12--13-12-10-12-----12-10--------------------------------------|
G|-------------------------------------12------------------------------------|
D|---------------------------------------------------------------------------|
A|---------------------------------------------------------------------------|
E|---------------------------------------------------------------------------|

e|-0----0----0----0----0----0----0----0--------------------------------------|Rythem1
B|-0----0----0----0----1----1----1----1--------------------------------------|
G|-0----0----0----0----0----0----0----0--------------------------------------|
D|-2----2----2----2----2----2----2----2--------------------------------------|
A|-2----2----2----2----3----3----3----3--------------------------------------|
E|---------------------------------------------------------------------------|

e|-3----3----3----3----2----2----2----2--------------------------------------|
B|-3----3----3----3----3----3----3----3--------------------------------------|
G|-0----0----0----0----2----2----2----2--------------------------------------|
D|-0----0----0----0----------------------------------------------------------|
A|-2----2----2----2----------------------------------------------------------|
E|---------------------------------------------------------------------------|

e|---------------------------------------------------------------------------|Lead1
B|---------------------------------------------------------------------------|
G|444-----------------------------------------------7-4-4h5p-2/4-323-5-2-2320|
D|------2-0-2-0-2-4-5-4-5-222-2-0-2-0-2-4-5-4-5-4-5-7------------------------|
A|---------------------------------------------------------------------------|
E|---------------------------------------------------------------------------|

e|---------------------------------------------------------------------------|Rythem2
B|---------------------------------------------------------------------------|
G|---------------------------------------------------------------------------|
D|--------------------------------2-----2-2-------2-----2-2------------------|
A|2-----2-2-------2-----2-2-------3-3-3-3-3-3-3-3-3-3-3-3-3-3-3-3------------|
E|0-0-0-0-0-0-0-0-0-0-0-0-0-0-0-0--------------------------------------------|
  * * * * * * * * * * * * * * * * * * * * * * * * * * * * * * * *  (palm mute)
e|---------------------------------------------------------------------------|Repeat Lead1
B|---------------------------------------------------------------------------|
G|--------------------------------2-----2-2-------2-----2-2------------------|
D|--------------------------------0-0-0-0-0-0-0-0-0-0-0-0-0------------------|
A|2-----2-2-------2-----2-2--------------------------------------------------|
E|3-3-3-3-3-3-3-3-3-3-3-3-3-3-3-3--------------------------------------------|
  * * * * * * * * * * * * * * * * * * * * * * * * * * * * * * * * 
Outro: Repeat intro , end with
e|-----13-12-10-12--13-12-10-------------------------------------------------|
B|---------------------------9-----------------------------------------------|
G|---------------------------------------------------------------------------|
D|---------------------------------------------------------------------------|
A|---------------------------------------------------------------------------|
E|---------------------------------------------------------------------------|

Not Perfect , lead 1 is off a bit but is fun to play this when you cant get exact.


| /  slide up
| \  slide down
| h  hammer-on
| p  pull-off
| ~  vibrato
| +  harmonic
| x  Mute note
===============================================================================
comments
We did not receive enough feedback on this tab! Please rate:
print report bad tab
1 2 3 4 5
1 comment total.
0 reply
r3xx4r wrote on December 7 2015, 09:06 pm

Tio muchas gracias por el tutorial muy bueno te mereces 5 estrellas :D

I want to post or [tab]
guest
You may want to rate the tab now too:
select rating
Please do not post tabs as comments. Select "correction" instead!