Oops, an error
Loading. Please wait.

Where The White Boys Dance Bass Tab

1,975 views 3 this week
no commentswrite comment
1 2 3 4 5
excellent!
x 1
add to favorites
launch autoscroll
font size
0
reset
guitar tuner
Tab Pro tools
  • play this tab
  • loop segment
  • change instrument
  • show fretboard
  • metronome
Autoscroll
slow
fast
+/-
esc
set tempo
stop
Contributor
Tuning
D# G# C# F# A# D#
Where the White Boys Dance
The Killers
Bass Tab


Bass tuned Eb, Ab, Db, Gb.

Intro [00:17]

|-------|
|-------|
|-------|
|-3333--|

Chorus

|-----------------------------------|
|-----------------------------------|
|-------2----------------3-2--------|
|-0-2-3----(3333)--0-2-3-----3-2----|

Pre-Chorus

|--------------------|
|--------------------|
|-------2-3-2--------|
|-0-2-3-------3-2----|

Solo

|-------------------------------------------------------------------|
|-------------------------------------------------------------------|
|---------------------------------7-7-7-7-7h9h10\--5-5-5-5-5-5-5-5--|
|-3-3-3-233-233-2-5-5-5-355-355-3-----------------------------------| x 2

|-------------------------------------------------------|
|-------------------------------------------------------|
|-7---------------5-------------3------------------2----|
|---------------------------5h7----------------3h5------|


Intro [00:17]
Chorus x 4
Verse [No Bass]
Pre-Chorus [01:09]
Chorus x 4
Verse [No Bass]
Pre-Chorus [02:07]
Chorus x 4
Solo [02:27]
Chorus x 4

The guitar wants to steal your thunder on some of those later choruses so make sure to 
it up loud!
comments
We did not receive enough feedback on this tab! Please rate:
print report bad tab
1 2 3 4 5
I want to post or [tab]
guest
You may want to rate the tab now too:
select rating
Please do not post tabs as comments. Select "correction" instead!