Oops, an error
Loading. Please wait.

Where The White Boys Dance bass

2,199 views 3 this week
1 commentread comment
1 2 3 4 5
x 3
add to favorites
×
Save as Personal and add changes to this tab that will be seen only by you. Learn more ›
×
You can save this tab as Personal to edit and correct it or add notes. All changes will be seen only by you. Learn more »
launch autoscroll
font size
0
reset
guitar tuner
edit
Autoscroll
slow
fast
+/-
esc
set tempo
stop
Where the White Boys Dance
The Killers
Bass Tab


Bass tuned Eb, Ab, Db, Gb.

Intro [00:17]

|-------|
|-------|
|-------|
|-3333--|

Chorus

|-----------------------------------|
|-----------------------------------|
|-------2----------------3-2--------|
|-0-2-3----(3333)--0-2-3-----3-2----|

Pre-Chorus

|--------------------|
|--------------------|
|-------2-3-2--------|
|-0-2-3-------3-2----|

Solo

|-------------------------------------------------------------------|
|-------------------------------------------------------------------|
|---------------------------------7-7-7-7-7h9h10\--5-5-5-5-5-5-5-5--|
|-3-3-3-233-233-2-5-5-5-355-355-3-----------------------------------| x 2

|-------------------------------------------------------|
|-------------------------------------------------------|
|-7---------------5-------------3------------------2----|
|---------------------------5h7----------------3h5------|


Intro [00:17]
Chorus x 4
Verse [No Bass]
Pre-Chorus [01:09]
Chorus x 4
Verse [No Bass]
Pre-Chorus [02:07]
Chorus x 4
Solo [02:27]
Chorus x 4

The guitar wants to steal your thunder on some of those later choruses so make sure to 
it up loud!

            
            
Suggest correction
Creating personal tab
Creating personal tab
You can edit any tab online and save it as your Personal.

You can edit, replace or remove any tab part or add personal notes – all changes will be seen only by you.

Personal tabs can be accessed anytime from any device, even offline.
Learn more »
Give kudos to tab author, rate the tab!
1 2 3 4 5
comments
print report bad tab
1 comment total.
0 reply
scarecrow1997 555 Apr 11, 2017 04:36 PM

|-----------------------------------|
|-----------------------------------|
|-------2----------------3-2--0------|
|-0-2-3----(3333)--0-2-3--------3--|

I think this might be the ending of the main riff in the chorus and the pre-chorus. It sounds better to me anyway. Besides that, I think you tabbed the whole thing spot on!

guest
You may want to rate the tab now too:
select rating
Wanna post a correction for this tab? Suggest correction