Oops, an error
Loading. Please wait.

Why Do I Keep Counting Bass Tab

1,135 views 12 this week
no commentswrite comment
1 2 3 4 5
excellent!
x 1
add to favorites
launch autoscroll
font size
0
reset
guitar tuner
Tab Pro tools
  • play this tab
  • loop segment
  • change instrument
  • show fretboard
  • metronome
Autoscroll
slow
fast
+/-
esc
set tempo
stop
Contributor
Tuning
D# G# C# F# A# D#
start at 0:29
PM
Gb|-----------------------------------------------|
Db|-----------------------------------------------|
Ab|-0-1-2-----------------------------------------|
Eb|-------0~~-------------------------------------|


continue 0:47
PM
Gb|-----------------------------------------------|
Db|-----------------------------------------------|
Ab|-0-1-2----------6~~------5~~------3~-----0-1-2-|
Eb|-------0~~-------------------------------------|

1st Chorus
Gb|-------------------------------------------------------------|
Db|-------------------------------------------------------------|
Ab|----------6~~---------------4~~-------0~~------2~~----0----2-|
Eb|-0~~---------------4~~---------------------------------------|

Gb|-------------------------------------------------------------|
Db|-------------------------------------------------------------|
Ab|-------------2~--2-3~--3-4~--4-2~--2-0~-----1212121212121212-|
Eb|-0~~------2/4------------------------------------------------|

Gb|------------------------------------------|
Db|------------------------/1414141414141414-|
Ab|----------------77777777------------------|
Eb|0000000000000000--------------------------|

Verse
Gb|--------------------------------------------------------|
Db|--------------------------------------------------------|
Ab|4444444400006666----4444----22234444444400006666----4444|
Eb|----------------4444----2222--------------------4444----|

Gb|--------------------------------------------------------|
Db|--------------------------------------------------------|
Ab|----------------2222222-----------------444-222-0000----|
Eb|2222222222222222-------24444444444444444---4---2----4444|

Gb|--------------------------------------------------------|
Db|--------------------------------------------------------|
Ab|--------00000001-22222222/1414141414141414--------------|
Eb|22234444------------------------------------------------|

2nd Chorus 
Gb|-----------------------------------------------------------------------|
Db|-----------------------------------------------------------------------|
Ab|-0-1-2-77777777777774676666666666666666--------444444440000000022220022|
Eb|---------------------------------------44444444------------------------|

Gb|--------------------------------------------------------|
Db|--------------------------------------------------------|
Ab|77777777777772462222222233333333444444442222222200000000|
Eb|--------------------------------------------------------|

Gb|--------------------------------|
Db|----------------1414141414141414|
Ab|1212121212121212----------------|
Eb|--------------------------------|

Final Chorus
Gb|------------------------------------------------|
Db|------------------------------------------------|
Ab|----------------22222222333333334444444422222222|
Eb|0000000000000240--------------------------------|

Gb|------------------------------------------------|
Db|------------------------------------------------|
Ab|--------0000000---------22222420--------00000000|
Eb|00000024-------422222222--------00000024--------|

Ending
Gb|-----------------------------------------------------|
Db|----------------------------11~---7~-----------------|
Ab|4~~--2~~--0~~~-------------------------7~------------|
Eb|--------------------------------------------8~~------|

Gb|-----------------------------------------------------|
Db|-----------------------------------------------------|
Ab|-7---7---7---7---------------------------------------|
Eb|---7---7---7---7\0~~~~-------------------------------|

comments
We did not receive enough feedback on this tab! Please rate:
print report bad tab
1 2 3 4 5
I want to post or [tab]
guest
You may want to rate the tab now too:
select rating
Please do not post tabs as comments. Select "correction" instead!