Oops, an error
Loading. Please wait.

Everything You Had Is Gone tab

498 views 1 this week
no commentswrite comment
1 2 3 4 5
x 3
add to favorites
×
Save as Personal and add changes to this tab that will be seen only by you. Learn more ›
×
You can save this tab as Personal to edit and correct it or add notes. All changes will be seen only by you. Learn more »
launch autoscroll
font size
0
reset
how to read this tab
guitar tuner
edit
Autoscroll
slow
fast
+/-
esc
set tempo
stop
-------------------------------------------------------------------------------
             Everything You Had Is Gone - The Killing Tree
-------------------------------------------------------------------------------
Tabbed by: WildGrim
E-mail: grim-117@hotmail.com

Tuning: Drop D

-- Intro --
Guitar one
e|--------------------------------------------------------|
B|--------------------------------------------------------|
G|-9----------------------9--10-9-------------------------|
D|-8--10-12---------------8--8--8--12-10-12---------------|
A|-8--8--0----------------8--8--8--8--8--0----------------|
D|-8--8--0--000--000--000-8--8--8--8--8--0--0--0--0--0--0-|
            ***  ***  ***                   *  *  *  *  *
Guitar two
e|--------------------------------------------------------|
B|--------------------------------------------------------|
G|-9----------------------9--10-9-------------------------|
D|-8--10-0----------------8--8--8--12-10-0----------------|
A|-8--8--0----------------8--8--8--8--8--0----------------|
D|-8--8--0--000--000--000-8--8--8--8--8--0--0--0--0--0--0-|
            ***  ***  ***                   *  *  *  *  *

Guitar one and two
e|-------------------------------------------------|
B|-------------------------8-8-8-8-8-8-8-8-8-8-8-8-|
G|-7-7-7-7-7-7-7-7-7-7-7-7-8-8-8-8-8-8-8-8-8-8-8-8-|
D|-8-8-8-8-8-8-8-8-8-8-8-8-6-6-6-6-6-6-6-6-6-6-6-6-|
A|-6-6-6-6-6-6-6-6-6-6-6-6-6-6-6-6-6-6-6-6-6-6-6-6-|
D|-6-6-6-6-6-6-6-6-6-6-6-6-6-6-6-6-6-6-6-6-6-6-6-6-|

Back to this
Guitar one
e|--------------------------------------------------------|
B|--------------------------------------------------------|
G|-9----------------------9--10-9-------------------------|
D|-8--10-12---------------8--8--8--12-10-12---------------|
A|-8--8--0----------------8--8--8--8--8--0----------------|
D|-8--8--0--000--000--000-8--8--8--8--8--0--0--0--0--0--0-|
            ***  ***  ***                   *  *  *  *  *
Guitar two
e|--------------------------------------------------------|
B|--------------------------------------------------------|
G|-9----------------------9--10-9-------------------------|
D|-8--10-0----------------8--8--8--12-10-0----------------|
A|-8--8--0----------------8--8--8--8--8--0----------------|
D|-8--8--0--000--000--000-8--8--8--8--8--0--0--0--0--0--0-|
            ***  ***  ***                   *  *  *  *  *

After the second time, guitar one plays this
e|-------8--------------------------------8-----------|
B|-5--6-------------------5--5--5-6--6--6-------------|
G|----------555--555--555-------------------5-5-5-5-5-|
D|----------------------------------------------------|
A|----------------------------------------------------|
D|----------------------------------------------------|

Guitar one and two
e|-------------------------------------------------|
B|-------------------------8-8-8-8-8-8-8-8-8-8-8-8-|
G|-7-7-7-7-7-7-7-7-7-7-7-7-8-8-8-8-8-8-8-8-8-8-8-8-|
D|-8-8-8-8-8-8-8-8-8-8-8-8-6-6-6-6-6-6-6-6-6-6-6-6-|
A|-6-6-6-6-6-6-6-6-6-6-6-6-6-6-6-6-6-6-6-6-6-6-6-6-|
D|-6-6-6-6-6-6-6-6-6-6-6-6-6-6-6-6-6-6-6-6-6-6-6-6-|

-- Verse --
Guitar one and two                                     End on this
e|-------------------------------------------------------|-----|
B|-------------------------------------------------------|-----|
G|-3-----------------------3-3-------------------------5-|--6--|
D|-3-----------------------3-3-------------------------5-|--6--|
A|-1-0-0-0-0-0-0-0-0-0-0-0-1-1-0-0-0-0-0-0-0-0-1-0-3-0-3-|--4--|
D|---0-0-0-0-0-0-0-0-0-0-0-----0-0-0-0-0-0-0-0-1-0-3-0---|-----|
     * * * * * * * * * * *     * * * * * * *

-- Chorus --
Guitar one
e|----------------------------------------|
B|-6-66-6-6--6-66-6-6--6-66-6-6-----------|
G|-7-77-7-7--7-77-7-7--7-77-7-7--5-55-5-5-|
D|----------------------------------------|
A|-5-55-5-5--5-55-5-5--5-55-5-5--3-33-3-3-|
D|----------------------------------------|

Guitar two
e|----------------------------------------|
B|----------------------------------------|
G|---------------------3-33-333--3-33-333-|
D|-0-00-000--1-11-111--3-33-333--3-33-333-|
A|-0-00-000--1-11-111--1-11-111--1-11-111-|
D|-0-00-000--1-11-111---------------------|

Guitar one - Alternate between these
e|----|    |----|    |----|
B|----|    |----|    |----|
G|-10-|    |-12-|    |-10-|
D|----|    |----|    |----|
A|-8--|    |-10-|    |-8--|
D|----|    |----|    |----|

e|----|    |----|    |----|
B|----|    |----|    |----|
G|-14-|    |-12-|    |-10-|
D|----|    |----|    |----|
A|-12-|    |-10-|    |-8--|
D|----|    |----|    |----|

-- Post Chorus --
Guitar one
e|-----------------------------------------------------------------------------------|
B|-----------------------------------------------------------------------------------|
G|-12-------12-------12-------12-------12-------10-------10-------10-8--8-8-8-8-8-8--|
D|----9--10----9--10----9--10----9--10----9--10----9--10----9--10--------------------|
A|-------------------------------------------------------------------6--6-6-6-6-6-6--|
D|-----------------------------------------------------------------------------------|

Guitar two
e|-----------------------------------------------------------------------------------|
B|-----------------------------------------------------------------------------------|
G|-12--12-12-12-12-12-12-12-12-12-12-12--10--10-10-10-10-10-10-10-10-8--8-8-8-8-8-8--|
D|-12--12-12-12-12-12-12-12-12-12-12-12--10--10-10-10-10-10-10-10-10-8--8-8-8-8-8-8--|
A|-10--10-10-10-10-10-10-10-10-10-10-10--8---8--8--8--8--8--8--8--8--6--6-6-6-6-6-6--|
D|-10--10-10-10-10-10-10-10-10-10-10-10--8---8--8--8--8--8--8--8--8--8--6-6-6-6-6-6--|

-- Verse --
Play the same thing as before, but this time, end on this:
e|---|
B|---|
G|---|
D|-0-|
A|-0-|
D|-0-|

-- Bridge --
Both guitars                  End on this
e|-------------------------------|---|
B|-------------------------------|---|
G|-------------------------3-3-3-|-6-|
D|-0-0-0-0-0---------------3-3-3-|-6-|
A|-0-0-0-0-0-----1-----3---1-1-1-|-4-|
D|-0-0-0-0-0-0-0-1-0-0-3-0-------|---|

Guitar one
e|-----------------------------------------------------------------|
B|-6---6---6---6---6---6---6---6---6---6---6---6---6---6---6---6---|
G|---7---7---7---7---7---7---7---7---7---7---7---7---7---7---7---7-|
D|-----------------------------------------------------------------|
A|-----------------------------------------------------------------|
D|-----------------------------------------------------------------|
   * * * * * * * * * * * * * * * * * * * * * * * * * * * * * * * *

Guitar two
e|-----------------------------------------------------------------|
B|-----------------------------------------------------------------|
G|-------------------------------------------3~--------------------|
D|-------------------------------------------3~--------------------|
A|-0-0---------------------0-1-0-3-0---------1~--------------------|
D|-0-0---------------------0-1-0-3-0-------------------------------|
   * *                     * * * * *

Guitar one
e|-----------------------------------------------------------------|
B|-6---6---6---6---6---6---6---5---6---6---6---6---8---6---5---6---|
G|---7---7---7---7---7---7---7---7---7---7---7---7---7---7---7---7-|
D|-----------------------------------------------------------------|
A|-----------------------------------------------------------------|
D|-----------------------------------------------------------------|


e|-5---------------------------------------------------------------|
B|-----8---6---5---6---8---6---5---6---6---6---6---6---6---6---6---|
G|---7---7---7---7---7---7---7---7---7---7---7---7---7---7---7---7-|
D|-----------------------------------------------------------------|
A|-----------------------------------------------------------------|
D|-----------------------------------------------------------------|

Guitar two
e|-------------|
B|-------------|
G|----------3~-|
D|--0~--1~--3~-|
A|--0~--1~--1~-|
D|--0~--1~-----|

-- Chorus --
Guitar one
e|----------------------------------------|
B|-6-66-6-6--6-66-6-6--6-66-6-6-----------|
G|-7-77-7-7--7-77-7-7--7-77-7-7--5-55-5-5-|
D|----------------------------------------|
A|-5-55-5-5--5-55-5-5--5-55-5-5--3-33-3-3-|
D|----------------------------------------|

Guitar two
e|----------------------------------------|
B|----------------------------------------|
G|---------------------3-33-333--3-33-333-|
D|-0-00-000--1-11-111--3-33-333--3-33-333-|
A|-0-00-000--1-11-111--1-11-111--1-11-111-|
D|-0-00-000--1-11-111---------------------|


Guitar one - Alternate between these two
e|----|    |----|    |---------------------------------------|
B|----|    |----|    |---------------------------------------|
G|-10-|    |-12-|    |-10-10-10-8--8--8--10-10-10-10-10-8--8-|
D|----|    |----|    |---------------------------------------|
A|-8--|    |-10-|    |-8--8--8--6--6--6--8--8--8--8--8--6--6-|
D|----|    |----|    |---------------------------------------|


e|----|    |----|    |---------------------------------------|
B|----|    |----|    |---------------------------------------|
G|-14-|    |-12-|    |-10-10-10-8--8--8--10-10-10-10-10-8--8-|
D|----|    |----|    |---------------------------------------|
A|-12-|    |-10-|    |-8--8--8--6--6--6--8--8--8--8--8--6--6-|
D|----|    |----|    |---------------------------------------|

End on:
|---|
|---|
|---|
|-0-|
|-0-|
|-0-|

Outro
e|-----------------------3-|
B|---------3-1-0-1---------|
G|---4-0---------------5---|
D|-2-----2---------3-5-----|
A|-------------------------|
D|-------------------------|

            
            
Suggest correction
Creating personal tab
Creating personal tab
You can edit any tab online and save it as your Personal.

You can edit, replace or remove any tab part or add personal notes – all changes will be seen only by you.

Personal tabs can be accessed anytime from any device, even offline.
Learn more »
Give kudos to tab author, rate the tab!
1 2 3 4 5
comments
print report bad tab
guest
You may want to rate the tab now too:
select rating
Wanna post a correction for this tab? Suggest correction