Oops, an error
Loading. Please wait.

Soundtrack To A Failing Relationship tab

624 views 1 this week
no commentswrite comment
1 2 3 4 5
1 last vote to show rating
add to favorites
×
Save as Personal and add changes to this tab that will be seen only by you. Learn more ›
×
You can save this tab as Personal to edit and correct it or add notes. All changes will be seen only by you. Learn more »
launch autoscroll
font size
0
reset
how to read this tab
guitar tuner
edit
Autoscroll
slow
fast
+/-
esc
set tempo
stop
This is Soundtrack to a Failing Relationship by The Killing Tree.
It's off The Romance of Helen Trent.
It's also instrumental.
The tuning is drop Db. Let me know if that's
the wrong tuning and I'll fix it.

For this part have it on a clean setting with lots
of delay. This is the part that starts from the beginning and
continues about half-way into the song. I'm not sure how many
times exactly to repeat it, but it's a lot.
eb)-------------------------------------------|
Bb)-------------------------------------------|
gb)--12----------10-------12----------10------|  X?
db)------12--10---------------12--10----------|
Ab)-------------------------------------------|
Db)-------------------------------------------|


This is the chord progression about half-way through.
At this point stop using the delay but keep it clean.
Again, I don't know how many times to repeat this,
but it's a lot.
eb)------------------------|
Bb)------------------------|
gb)----------------------8-|
db)---12-12---10---8-7-8-8-|  X?
Ab)---10-10----8---------6-|
Db)------------------------|


Then a distorted guitar enters with this.
Now the strumming pattern was hard to get so
I did the best I could. If you don't like it
just use your own.
eb)------------------------------------|
Bb)------------------------------------|
gb)------------------------------------|
db)-55-5-55-55-5-55--55-5-55-55-5-55---|  X2
Ab)-55-5-55-55-5-55--55-5-55-55-5-55---|
Db)-55-5-55-55-5-55--55-5-55-55-5-55---|

eb)------------------------------------|
Bb)------------------------------------|
gb)------------------------------------|
db)-11-1-11-11-1-11--11-1-11-11-1-11---|  X2
Ab)-11-1-11-11-1-11--11-1-11-11-1-11---|
Db)-11-1-11-11-1-11--11-1-11-11-1-11---|
note: all are 1's. none are 11's.


Have a clean guitar keep repeating this with
the delay again
eb)-----------------------|
Bb)-----------------------|
gb)--12----------10-------|
db)------12--10-----------|
Ab)-----------------------|
Db)-----------------------|

And that's pretty much it. I'm very open to suggestions on
how to make it better. Please comment and rate.

            
            
Suggest correction
Creating personal tab
Creating personal tab
You can edit any tab online and save it as your Personal.

You can edit, replace or remove any tab part or add personal notes – all changes will be seen only by you.

Personal tabs can be accessed anytime from any device, even offline.
Learn more »
Give kudos to tab author, rate the tab!
1 2 3 4 5
comments
print report bad tab
guest
You may want to rate the tab now too:
select rating
Wanna post a correction for this tab? Suggest correction