Oops, an error
Loading. Please wait.

Doing It To Death Tab

version 1
version 1

Intro

  • Doing it to death's guitar intro.

Whole song

52 views 27 this week
no commentswrite comment
1 2 3 4 5
3 more votes to show rating
add to favorites
launch autoscroll
font size
0
reset
how to read this tab
guitar tuner
Autoscroll
slow
fast
+/-
esc
set tempo
stop
Help us to improve Ultimate-Guitar.com Take our survey!
×
Author
Difficulty
Tuning
novice
C# G# E B F# C#
About this tab version
Doing it to death's guitar intro. Was this info helpful? Yes No
| 
|   The Kills - Doing It To Death
|
|       Length    03:49
|       Tempo     ~133bpm
|       Timing    4/4
|



[00:10] Intro

C#||-------------------------|
G#||-------------------------|
E ||-------------------------|
B ||-------------------------|
F#||--------2----------------|
C#||--12\0--0----------------|
               PM


[00:18] Riff

C#||--------------7--7-------|-------------------------|-------------------------|-------5--5--5--5--------|
G#||--------------------8--8-|-------------7--7\-------|-------------7--7--------|-------5--5--5--5--------|
E ||-------------------------|-------------------------|-------------------7--7--|-------5--5--5--5--------|
B ||--------5--5-------------|-------------------------|-------------------------|-------------------------|
F#||--7--7-------------------|-------5--5--------------|-------5--5--------------|-------------------7-----|
C#||-------------------------|-7--7--------------------|-7--7--------------------|-7--5----------------7\--|

C#||--------------7--7-------|-------------------------|-------------------------|-------5--5--5--5--------|
G#||--------------------8\---|-------------7--7\-------|-------------5--8--5-----|-------5--5--5--5--------|
E ||-------------------------|-------------------------|----------------------7--|-4-----5--5--5--5--------|
B ||--------5--5-------------|-------------------------|-------------------------|-------------------------|
F#||--7--7-------------------|-------5--5--------------|-------5--5--------------|-------------------7-----|
C#||-------------------------|-7--7--------------------|-7--7--------------------|----5----------------7\--|


************************************

 \      Slide down
 PM     Palm mute

************************************
Suggest correction
Give kudos to tab author, rate the tab!
1 2 3 4 5
comments
print report bad tab
guest
You may want to rate the tab now too:
select rating
Wanna post a correction for this tab? Suggest correction