Oops, an error
Loading. Please wait.

Gypsy Death And You tab

version 2
version 2

Whole song

  • Guitar tuned a whole step down (D tuning). Song is... Show more
61 views 12 this week
no commentswrite comment
1 2 3 4 5
3 more votes to show rating
add to favorites
×
Save as Personal and add changes to this tab that will be seen only by you. Learn more ›
×
You can save this tab as Personal to edit and correct it or add notes. All changes will be seen only by you. Learn more »
launch autoscroll
font size
0
reset
how to read this tab
guitar tuner
edit
Autoscroll
slow
fast
+/-
esc
set tempo
stop
About this tab version
Guitar tuned a whole step down (D tuning). Song is played by simply picking the bar chords, and repeating the same throughout the song. There are a few times where the plucking pattern changes slightly but this is the basic pattern. Alternatively you could strum the barre chords A F# D E instead of plucking individually. Was this info helpful? Yes No
[Intro]
        A            F#         D          E
d|-------------------------------------------------|
A|-------------------------------------------------|
F|-------8-----------5-----------1-----------3-----|
C|-----9---9-------6---6-------2---2-------4---4---|
G|-------------------------------------------------|
D|---7-----------4-----------0-----------2---------|
(x2)

[Verse 1]    
d|-------------------------|
A|-------------------------|
F|-------8-----------5-----|
C|-----9---9-------6---6---|
G|-------------------------|
D|---7-----------4---------|
You knock on her door

d|-------------------------|
A|-------------------------|
F|-------1-----------3-----|
C|-----2---2-------4---4---|
G|-------------------------|
D|---0-----------2---------|
She don't recognize your voice no more

d|-------------------------|
A|-------------------------|
F|-------8-----------5-----|
C|-----9---9-------6---6---|
G|-------------------------|
D|---7-----------4---------|
So she got on an aeroplane

d|-------------------------|
A|-------------------------|
F|-------1-----------3-----|
C|-----2---2-------4---4---|
G|-------------------------|
D|---0-----------2---------|
Na na na na na so long after

d|-------------------------|
A|-------------------------|
F|-------8-----------5-----|
C|-----9---9-------6---6---|
G|-------------------------|
D|---7-----------4---------|
Strip down from the fever

d|-------------------------|
A|-------------------------|
F|-------1-----------3-----|
C|-----2---2-------4---4---|
G|-------------------------|
D|---0-----------2---------|
Laid down in a hotel bed

d|-------------------------|
A|-------------------------|
F|-------8-----------5-----|
C|-----9---9-------6---6---|
G|-------------------------|
D|---7-----------4---------|
Wouldn't take no phone calls at all

d|---------------------------------|
A|---------------------------------|
F|-------1-----------3---3---3-----|
C|-----2---2-------4---4---4---4---|
G|---------------------------------|
D|---0-----------2-----------------|
Didn't want no more voices in her head

[Chorus]
d|-------------------------|
A|-------------------------|
F|-------8-----------5-----|
C|-----9---9-------6---6---|
G|-------------------------|
D|---7-----------4---------|
That's the way that you feel

d|-------------------------|
A|-------------------------|
F|-------1-----------3-----|
C|-----2---2-------4---4---|
G|-------------------------|
D|---0-----------2---------|
And that's the way that you feel

d|-------------------------|
A|-------------------------|
F|-------8-----------5-----|
C|-----9---9-------6---6---|
G|-------------------------|
D|---7-----------4---------|
That's the way that you feel honey then

d|---------------------------------|
A|---------------------------------|
F|-------1-----------3---3---3-----|
C|-----2---2-------4---4---4---4---|
G|---------------------------------|
D|---0-----------2-----------------|
That's the way that you feel

[Verse 2]
d|-------------------------|
A|-------------------------|
F|-------8-----------5-----|
C|-----9---9-------6---6---|
G|-------------------------|
D|---7-----------4---------|
In the blue part of the evening


d|-------------------------|
A|-------------------------|
F|-------1-----------3-----|
C|-----2---2-------4---4---|
G|-------------------------|
D|---0-----------2---------|
Sometimes it's hard

d|-------------------------|
A|-------------------------|
F|-------8-----------5-----|
C|-----9---9-------6---6---|
G|-------------------------|
D|---7-----------4---------|
She thinks she hears you coming

d|-------------------------|
A|-------------------------|
F|-------1-----------3-----|
C|-----2---2-------4---4---|
G|-------------------------|
D|---0-----------2---------|
But she's stuck against the wall

d|-------------------------|
A|-------------------------|
F|-------8-----------5-----|
C|-----9---9-------6---6---|
G|-------------------------|
D|---7-----------4---------|
Oh she wants what she wants, so she do what she do but

d|-------------------------|
A|-------------------------|
F|-------1-----------3-----|
C|-----2---2-------4---4---|
G|-------------------------|
D|---0-----------2---------|
Now, when she looks at you she

d|-------------------------|
A|-------------------------|
F|-------8-----------5-----|
C|-----9---9-------6---6---|
G|-------------------------|
D|---7-----------4---------|
Covers one eye 'cause she can see into your mind

d|-------------------------|
A|-------------------------|
F|-------1-----------3-----|
C|-----2---2-------4---4---|
G|-------------------------|
D|---0-----------2---------|
She no longer want to

[Chorus]
d|-------------------------|
A|-------------------------|
F|-------8-----------5-----|
C|-----9---9-------6---6---|
G|-------------------------|
D|---7-----------4---------|
And that's the way that you feel

d|-------------------------|
A|-------------------------|
F|-------1-----------3-----|
C|-----2---2-------4---4---|
G|-------------------------|
D|---0-----------2---------|
And that's the way that you feel

d|-------------------------|
A|-------------------------|
F|-------8-----------5-----|
C|-----9---9-------6---6---|
G|-------------------------|
D|---7-----------4---------|
And that's the way that you feel honey then

d|-------------------------|
A|-------------------------|
F|-------1-----------3-----|
C|-----2---2-------4---4---|
G|-------------------------|
D|---0-----------2---------|
That's the way that you feel, hmm

[Outro]
        A            F#         D          E
d|-------------------------------------------------|
A|-------------------------------------------------|
F|-------8-----------5-----------1-----------3-----|
C|-----9---9-------6---6-------2---2-------4---4---|
G|-------------------------------------------------|
D|---7-----------4-----------0-----------2---------|
(x2)

d|-------|
A|-------|
F|-------|
C|-------|
G|-------|
D|---7---|

            
            
Suggest correction
Creating personal tab
Creating personal tab
You can edit any tab online and save it as your Personal.

You can edit, replace or remove any tab part or add personal notes – all changes will be seen only by you.

Personal tabs can be accessed anytime from any device, even offline.
Learn more »
Give kudos to tab author, rate the tab!
1 2 3 4 5
comments
print report bad tab
guest
You may want to rate the tab now too:
select rating
Wanna post a correction for this tab? Suggest correction