Oops, an error
Loading. Please wait.

Heart Of A Dog tab

version 1
version 1

Whole song

2,986 views 21 this week
no commentswrite comment
1 2 3 4 5
x 3
add to favorites
×
Save as Personal and add changes to this tab that will be seen only by you. Learn more ›
×
You can save this tab as Personal to edit and correct it or add notes. All changes will be seen only by you. Learn more »
launch autoscroll
font size
0
reset
how to read this tab
guitar tuner
edit
Autoscroll
slow
fast
+/-
esc
set tempo
stop
[Intro]

D#|-----------------------------------------|
A#|-----------------------------------------|
F#|-----------------------------------------|
C#|-----------------------------------------| x4
G#|-----------------------------------------|
C#|---9--------------------12---------------|


[Verse 1]
            From sea to mountain valley    
D#|-------------------------------------------|
A#|-------------------------------------------|
F#|-------------------------------------------|
C#|-------------------------------------------| x6
G#|-------------------------------------------|
C#|---9---------------------12----------------|

                 No matter what they’re saying oooooh
D#|---------------------------------------------------------------------------|
A#|---------------------------------------------------------------------------|
F#|---------------------------------------------------------------------------|
C#|--------------------------------------------5------------------------------|
G#|--------------------------------------------5------------------------------|
C#|--9----------------------12-----------------5--------------------5-5-5-7---|
                                                    (let ring)                   
   I need you             
D#|------------------------------------------|
A#|------------------------------------------|
F#|------------------------------------------| 
C#|------------------------------------------| x4
G#|------------------------------------------|
C#|---9---------------------12---------------|


[Chorus]

   I’m loyal, oh oh      
D#|---------------------------------------------------------------------------|
A#|---------------------------------------------------------------------------|
F#|---------------------------------------------------------------------------|
C#|------------------------------------------------------5--------------------|
G#|------------------------------------------------------5--------------------|
C#|------9-------7-9-12----------9--------7-9-12---------5--------------------|
                                                           (let ring)
                                                                                                        
D#|---------------------------------------------------------------------------|
A#|---------------------------------------------------------------------------|
F#|---------------------------------------------------------------------------|
C#|---------------------------------------------------------------------------|
G#|---------------------------------------------------------------------------|
C#|--5-5-7-9----7-7-9--12\--------------7-9----7-7-9--12\---------------------|


[Verse 2]

           From starry eyes colliding
D#|---------------------------------------------------------------------------|
A#|---------------------------------------------------------------------------|
F#|---------------------------------------------------------------------------|
C#|---------------------------------------------------------------------------|
G#|---------------------------------------------------------------------------|
C#|--7-9-----12--------------------9------7-9-12------------------------------|

          From Mars to someone crying
D#|---------------------------------------------------------------------------|
A#|---------------------------------------------------------------------------|
F#|---------------------------------------------------------------------------|
C#|---------------------------------------------------------------------------|
G#|---------------------------------------------------------/9-7\5-0----------|
C#|----9-----12--------------------9------7-9-12------------------------------|

          I’m never far away
D#|---------------------------------------------------------------------------|
A#|----------------------------------------------------------7----7-----------|
F#|---------------------------------------------------------------------------|
C#|---------------------------------------------------------------------------|
G#|---------------------------------------------------------------------------|
C#|----9-----12--------------------9------7-9-12------------------------------|

         No matter what I’m hiding
D#|---------------------------------------------------------------------------|
A#|---------------------------------------------------------------------------|
F#|---------------------------------------------------------------------------|
C#|------------------------------------5--------------------------------------|
G#|------------------------------------5--------------------------------------|
C#|----9-----12------------------------5--------------------------------------|
                                         (let ring)

            I get lost            But I always come around
D#|---------------------------------------------------------------------------|
A#|-----------------------------------------------------------/7--------------|
F#|--------------------------------------------------------------9-7----------|
C#|------------------------------------------------------------------9--------|
G#|---------------------------------------------------------------------------|
C#|--7-7-9--------------7-9-12----------9----------7-9-12---------------------|

It’s a strange fear              Allows me to be found
D#|---------------------------------------------------------------------------|
A#|---------------------------------------------------------------------------|
F#|---------------------------------------------------------------------------|
C#|---------------------------------------------------------------------------|
G#|-------------------------------------------------------/9-7\5-0------------|
C#|----9----7-9-12--------------------9------7-9-12---------------------------|


[Chorus]

   I’m loyal, oh oh      
D#|---------------------------------------------------------------------------|
A#|---------------------------------------------------------------------------|
F#|---------------------------------------------------------------------------|
C#|---------------------------------------------------------------------------|
G#|---------------------------------------------------------------------------|
C#|------9-------9-12----------9--------7-9-12--------------------------------|

   I’m loyal, oh oh    I got the heart of a dog
D#|---------------------------------------------------------------------------|
A#|---------------------------------------------------------------------------|
F#|---------------------------------------------------------------------------|
C#|--------------------------------------------------------5------------------|
G#|--------------------------------------------------------5------------------|
C#|------9------7-9-12----------9--------7-9-12-----12\7---5------------------|
                                                             (let ring)

D#|---------------------------------------------------------------------------|
A#|---------------------------------------------------------------------------|
F#|---------------------------------------------------------------------------| 
C#|---------------------------------------------------------------------------| x2
G#|---------------------------------------------------------------------------|
C#|--(5-5)-7-9----7-7-9--12\--------------7-9----7-7-9--12\-------------------|


[Bridge]

It’s life or death     
D#|------------------------|
A#|------------------------|
F#|------------------------|
C#|------------------------| x8
G#|--9--7--9---------------|
C#|------------------------|


[Chorus]

   I’m loyal, oh oh      
D#|---------------------------------------------------------------------------|
A#|---------------------------------------------------------------------------|
F#|---------------------------------------------------------------------------|
C#|---------------------------------------------------------------------------|
G#|---------------------------------------------------------------------------|
C#|------9---------12----------9--------7-9-12--------------------------------|

   I’m loyal, oh oh    I got the heart of a dog
D#|---------------------------------------------------------------------------|
A#|---------------------------------------------------------------------------|
F#|---------------------------------------------------------------------------|
C#|--------------------------------------------------------5------------------|
G#|--------------------------------------------------------5------------------|
C#|------9------7-9-12----------9--------7-9-12-----12\7---5------------------|
                                                             (let ring)

[Verse 3]

      From bars to beds of laying
D#|---------------------------------------------------------------------------|
A#|---------------------------------------------------------------------------|
F#|---------------------------------------------------------------------------|
C#|---------------------------------------------------------------------------|
G#|---------------------------------------------------------/9-7\5-0----------|
C#|----9----7-9-12--------------------9------7-9-12---------------------------|

        From boots of lead to changing
D#|-----------------------------------------------------------14-14\----------|
A#|-----------------------------------------------------------14-14\----------|
F#|---------------------------------------------------------------------------|
C#|---------------------------------------------------------------------------|
G#|---------------------------------------------------------------------------|
C#|----9-----12--------------------9------7-9-12------------------------------|

        I’m hooked from deep inside
D#|---------------------------------------------------------------------------|
A#|-----------------------------------------------------------7-7-------------|
F#|---------------------------------------------------------------9-----------|
C#|-----------------------------------------------------------------9---------|
G#|---------------------------------------------------------------------------|
C#|----9-----12--------------------9----------12------------------------------|
                                                    (something like this)

     Call when you’re ready cos I’m ready to ride
D#|---------------------------------------------------------------------------|
A#|---------------------------------------------------------------------------|
F#|---------------------------------------------------------------------------|
C#|----9----------------------------------------------------------------------|
G#|----9-----------------------------------/9-7\5--5--------------------------|
C#|----9----7-9-12--------------------9-----------7--9------------------------|



************************************

| /   Slide up
| \   Slide down

************************************

            
            
Suggest correction
Creating personal tab
Creating personal tab
You can edit any tab online and save it as your Personal.

You can edit, replace or remove any tab part or add personal notes – all changes will be seen only by you.

Personal tabs can be accessed anytime from any device, even offline.
Learn more »
Give kudos to tab author, rate the tab!
1 2 3 4 5
comments
print report bad tab
guest
You may want to rate the tab now too:
select rating
Wanna post a correction for this tab? Suggest correction