Oops, an error
Loading. Please wait.

Mr Music Man bass

1,892 views 1 this week
no commentswrite comment
1 2 3 4 5
2 more votes to show rating
add to favorites
×
Save as Personal and add changes to this tab that will be seen only by you. Learn more ›
×
You can save this tab as Personal to edit and correct it or add notes. All changes will be seen only by you. Learn more »
launch autoscroll
font size
0
reset
guitar tuner
edit
Autoscroll
slow
fast
+/-
esc
set tempo
stop
Mr Music man
King Blues

Intro
G|---------------------------|------------------------|
D|---------------------------|------------------------|
A|---------3-3-3-3-1-00-11-3-|---------3-3-3-3-1-0-1--|
E|-1-1-1-1-------------------|-1-1-1-1----------------|

G|---------------------------|------------------------|
D|---------------------------|------------------------|
A|---------3-3-3-3-1-00-11-3-|---------3-3-3-3-1------|
E|-1-1-1-1-------------------|-1-1-1-1----------------|

Verse (Play whole thing twice)
G|---------------------------|------------------------|
D|---------------------------|------------------------|
A|---------3-3-3-3-1-00-11-3-|---------3-3-3-3-1-0-1--|
E|-1-1-1-1-------------------|-1-1-1-1----------------|

G|---------------------------|------------------------|
D|---------------------------|------------------------|
A|---------3-3-3-3-1-00-11-3-|---------3-3-3-3-1------|
E|-1-1-1-1-------------------|-1-1-1-1----------------|

Chorus x3...
G|---------------------------|------------------------|
D|---------------------------|------------------------|
A|---------3-3-3-3-1-00-11-3-|---------3-3-3-3-1-0-1--|
E|-1-1-1-1-------------------|-1-1-1-1----------------|

... Then
G|---------------------------|------------------------|
D|---------------------------|------------------------|
A|---------3-3-3-3-1-00-11-3-|---------3-3-3-3-1------|
E|-1-1-1-1-------------------|-1-1-1-1----------------|

Verse
Repeat verse 1 but do this on last bar
G|---------------------------|------------------------|
D|---------------------------|------------------------|
A|---------3-3-3-3-1-00-11-3-|------------------------|
E|-1-1-1-1-------------------|-1----------------------|

Chorus x3...
G|---------------------------|------------------------|
D|---------------------------|------------------------|
A|---------3-3-3-3-1-00-11-3-|---------3-3-3-3-1-0-1--|
E|-1-1-1-1-------------------|-1-1-1-1----------------|

... Then
G|---------------------------|------------------------|
D|---------------------------|------------------------|
A|---------3-3-3-3-1-00-11-3-|---------3-3-3-3-1------|
E|-1-1-1-1-------------------|-1-1-1-1----------------|

Drums and vocals bit (No bass)

Repeat Chorus part and end with:
G|------|
D|------|
A|-11---|
E|----1-|

Add my Myspace:
Myspace.com/Jake_bums_sheep_x
I'll add you fer shure and we can bum over the interweb lolz
Suggest correction
Creating personal tab
Creating personal tab
You can edit any tab online and save it as your Personal.

You can edit, replace or remove any tab part or add personal notes – all changes will be seen only by you.

Personal tabs can be accessed anytime from any device, even offline.
Learn more »
Give kudos to tab author, rate the tab!
1 2 3 4 5
comments
print report bad tab
guest
You may want to rate the tab now too:
select rating
Wanna post a correction for this tab? Suggest correction