Oops, an error
Loading. Please wait.

All Day And All Of The Night Bass Tab

version 1
version 1

Whole song

Interactive

38,631 views 36 this week
4 commentsread comments
1 2 3 4 5
x 10
add to favorites
launch autoscroll
font size
0
reset
guitar tuner
×
Best way to learn
"All Day And All Of The Night"
Autoscroll
slow
fast
+/-
esc
set tempo
stop
Artist: The Kinks
Song: All day and all of the knight
Tabbed By: Amy
e-mail: basschick@hotmail.co.uk
Tuning: Standard

(There's a tricky rhythm to this, so you'll just have to listen to the song a couple of times.)

[Intro]
G|---------------------------------------------------------|
D|---------------------------------------------------------|
A|--------------------1-1-1--------------------------------|
E|---1---3-3---1-1------------3----------------------------|

[Verse]
G|---------------------------------------------------------|
D|---------------------------------------------------------| x4
A|--------------------1-1-1--------------------------------|
E|---1---3-3---1-1------------3----------------------------|

[Pre-Chorus]
G|-------------------------------------------------------------|
D|-------------------------------------------------------------|
A|---1-1-1-1-----------0-0-------2-2-2-------------------------|
E|-1----------1-1-1-1-------3-3-------4-4-3-4-3----------------|

[Chorus]
G|-------------------------------------------------------------|
D|---0-0--------3-3-2-0-0--------------------------------------| x4
A|--------3-3-----------3-0-3----------------------------------|
E|-------------------------------------------------------------|

[Verse]
G|---------------------------------------------------------|
D|---------------------------------------------------------| x4
A|--------------------1-1-1--------------------------------|
E|---1---3-3---1-1------------3----------------------------|

[Pre-Chorus]
G|-----------------------------------------------------------|
D|-----------------------------------------------------------|
A|---1-1-1-1-----------0-0-------2-2-2-----------------------|
E|-1----------1-1-1-1-------3-3-------4-4-3-4-3--------------|

[Chorus]
G|---------------------------------------------------------|
D|---0-0--------3-3-2-0-0----------------------------------| x4
A|--------3-3-----------3-0-3------------------------------|
E|---------------------------------------------------------|

(Straight after chorus play)
G|----------------------------------|
D|-----3-----3-0--------------------|
A|----------------------------------|
E|----------------------------------|

[Verse] x2
G|---------------------------------------------------------|
D|---------------------------------------------------------| x4
A|--------------------1-1-1--------------------------------|
E|---1---3-3---1-1------------3----------------------------|

[Pre-Chorus]
G|---------------------------------------------------------|
D|---------------------------------------------------------|
A|---1-1-1-1-----------0-0-------2-2-2---------------------|
E|-1----------1-1-1-1-------3-3-------4-4-3-4-3------------|

[Chorus]
G|---------------------------------------------------------|
D|---0-0--------3-3-2-0-0----------------------------------| x4
A|--------3-3-----------3-0-3------------------------------|
E|---------------------------------------------------------|

[Outro]
G|----------------------------------|
D|----0-------3---0-----------------|
A|--------3-------------------------|
E|----------------------------------|
Suggest correction
comments
print report bad tab
4 comments total. Showing first comments.
0 reply
julianmier84 10 Aug 03, 2014 04:26 PM

I think the tab should go like
A:---5-53-3557
But that ? just goes for the intro and the verse

0 reply
julianmier84 10 Aug 03, 2014 04:28 PM

I think the verse and intro should be
A:-5-53-3557

0 reply
narwhalsxxx 10 Feb 27, 2015 05:46 PM

im here because of yoplait

guest
You may want to rate the tab now too:
select rating
Wanna post a correction for this tab? Suggest correction