Oops, an error
Loading. Please wait.

All Day And All Of The Night Tab

version 1
version 1

Whole song

Interactive

24,511 views 15 this week
4 commentsread comments
1 2 3 4 5
worth learning
x 5
add to favorites
launch autoscroll
font size
0
reset
how to read this tab
guitar tuner
Tab Pro tools
  • play this tab
  • loop segment
  • change instrument
  • show fretboard
  • metronome
×
Best way to learn
"All Day And All Of The Night"
Autoscroll
slow
fast
+/-
esc
set tempo
stop
Contributor
this is my first ever tab so i hope ive got it right. havebnt worked out the solo
 yet as it's past me but here is my tab. enjoy ;)

VERSE:(strumming is easy enough 2 work out for urself)

e----------------------
F----------------------
D----------3----------- X6
B--5---3---3-----------
A--5---3---1-----------
E--3---1---------------

Pre chourus:

e----------------------
F----------------------
D--3-------------------
B--3x8---3----7--------X1
A--1-----3x8--7x16-----
E--------1----5--------

chorus: (Basically same strumming as verse)

e----------------------
F--------5-------------
D--7--5--5--5----------
B--7--5--3--5----------X4
A--5--3-----3----------
E----------------------

verse again
solo (sorry dont have it)
another verse
pre chorus
chorus

And thats it hope you find it usefull. :D
comments
print report bad tab
4 comments total. Showing first comments.
0 reply
KrazyKingsFreak wrote on August 20 2004, 12:00 am

wrong

0 reply
guitarmack wrote on July 9 2008, 02:27 pm

you need to play more than that for the riff...

-1 reply
sampster wrote on August 12 2008, 11:53 am

the intro is wrong it should be...
-----------------------------------------------
-----------------------------------------------
---------------------3---3---------------------
-3---5---5---3---3---3---3---5-----------------
-3---5---5---3---3---1---1---5-----------------
-1---3---3---1---1-----------3-----------------
well i think it is anyway.

I want to post or [tab]
guest
You may want to rate the tab now too:
select rating
Please do not post tabs as comments. Select "correction" instead!