Oops, an error
Loading. Please wait.

Little Miss Queen Of Darkness bass

472 views 3 this week
1 commentread comment
1 2 3 4 5
2 more votes to show rating
add to favorites
×
Save as Personal and add changes to this tab that will be seen only by you. Learn more ›
×
You can save this tab as Personal to edit and correct it or add notes. All changes will be seen only by you. Learn more »
launch autoscroll
font size
0
reset
guitar tuner
edit
Autoscroll
slow
fast
+/-
esc
set tempo
stop
Difficulty
intermediate
Intro:
G|---------------------------|
D|----------9--9-------------|
A|-10--10---------7--7---5~--|
E|---------------------------|
 
Verse
G|--------------------------------------|
D|----------2-2-2-2---------------------|
A|------------------0-0-0-0--5-3-2-0----| Play TWICE then>
E|--3-3-3-3-----------------------------|

>Verse Cont.
G|------------------------------------------------------|
D|--------------------------7-7-7-7---------------------|
A|----------7-7-7-7--------------------0-0-0-0--0-0-0-0-|
E|--7-7-7-7---------7-7-7-7----------0------------------|

G|-------------------------------------------------|
D|----------2-2-2-2--------------------------------|
A|--2-2-2-2---------0-0-0-0--0-0-0-0--3-2-3-2--5~--|
E|-------------------------------------------------|

You repeat the verse except for the drum solo/Bridge.

Bridge/Drum solo
G|--------------|
D|--------------|
A|--5-5-5-5-5-5-|
E|--------------|

Just continue playing 5 until the Bridge/Drum Solo ends.


            
            
Suggest correction
Creating personal tab
Creating personal tab
You can edit any tab online and save it as your Personal.

You can edit, replace or remove any tab part or add personal notes – all changes will be seen only by you.

Personal tabs can be accessed anytime from any device, even offline.
Learn more »
Give kudos to tab author, rate the tab!
1 2 3 4 5
comments
print report bad tab
1 comment total.
0 reply
PeterMermoz 10 Oct 04, 2015 07:15 AM

Thanks, very useful. It's not a very well known song, but it's a great one.
I think that in the verse cont. section, you could play A7 again instead of D7. Am I wrong ?

guest
Wanna post a correction for this tab? Suggest correction