Oops, an error
Loading. Please wait.

Long Tall Shorty tab

1,877 views 12 this week
no commentswrite comment
1 2 3 4 5
2 more votes to show rating
add to favorites
×
Save as Personal and add changes to this tab that will be seen only by you. Learn more ›
×
You can save this tab as Personal to edit and correct it or add notes. All changes will be seen only by you. Learn more »
launch autoscroll
font size
0
reset
how to read this tab
guitar tuner
edit
Autoscroll
slow
fast
+/-
esc
set tempo
stop
Author
Intro:
e:------------------------|
b:-----------/8--\6--\4---|
g:-----5-8~~~~------------|
d:5--8--------------------|
a:------------------------|
e:------------------------|

Riff1: (This riff is played during the whole song, often you´ve to play
staccato, but you´ll hear it. Play the Intro with a clean guitar and the rest with a 
distortion and strum dirty...really easy song, in the 3rd verse there comes a melodie I´ll 
add later...)

  A
e:----------------|----------------|----------------|----------------|
b:----------------|----------------|----------------|----------------|
g:----------------|----------------|----------------|----------------|
d:-------------7--|-------------7--|-------------7--|-------------7--|
a:7-7-9-9-7-79--9-|7-7-9-9-7-79--9-|7-7-9-9-7-79--9-|7-7-9-9-7-79--9-|
e:5-5-5-5-5-55----|5-5-5-5-5-55----|5-5-5-5-5-55----|5-5-5-5-5-55----|
                                   D
e:----------------|----------------|----------------|----------------|
b:----------------|----------------|----------------|----------------|
g:----------------|----------------|-------------7--|-------------7--|
d:-------------7--|-------------7--|7-7-9-9-7-79--9-|7-7-9-9-7-79--9-|
a:7-7-9-9-7-79--9-|7-7-9-9-7-79--9-|5-5-5-5-5-55----|5-5-5-5-5-55----|
e:5-5-5-5-5-55----|5-5-5-5-5-55----|----------------|----------------|
 A                                  E
e:----------------|----------------|--------------------|
b:----------------|----------------|--------------------|
g:----------------|----------------|----------------9---|
d:-------------7--|-------------7--|9-9-11-11-9-911--11-|
a:7-7-9-9-7-79--9-|7-7-9-9-7-79--9-|7-7-07-07-7-707-----|
e:5-5-5-5-5-55----|5-5-5-5-5-55----|--------------------|
  D                A
e:----------------|----------------|----------------|
b:----------------|----------------|----------------|
g:-------------7--|----------------|----------------|
d:7-7-9-9-7-79--9-|-------------7--|-------------7--|
a:5-5-5-5-5-55----|7-7-9-9-7-79--9-|7-7-9-9-7-79--9-|
e:----------------|5-5-5-5-5-55----|5-5-5-5-5-55----|


They call me the Long Tall Shorty
'Cause I know what love is all about
They call me Long Tall Shorty
'Cause I know what love is all about
Well I can tell you where the lights go
Oh, when they go out

Girls, if you get lonely
Dial 4-2-4-6-8-9
Well, girls, if you get lonely
Dial 4-2-4-6-8-9
And your troubles will be over
I'll even give you back you dime
Oh yeah

I like 'em long, I like 'em tall
I like 'em short, and that ain't all
Now when I die, don't bury me deep
Just put some women to my head, to my feet
Tell all the world now, to come and peep
Long Tall Shorty now has gone to sleep
Whoa now

I like 'em long, I like 'em tall
Oh yeah

They call me Long Tall Shorty
'Cause I know what love is all about
They call me Long Tall Shorty
'Cause I know what love is all about
Well I can tell you where the lights go
Oh, when they go out

For comments feel free to mail: lavazza@everymail.net
Suggest correction
Creating personal tab
Creating personal tab
You can edit any tab online and save it as your Personal.

You can edit, replace or remove any tab part or add personal notes – all changes will be seen only by you.

Personal tabs can be accessed anytime from any device, even offline.
Learn more »
Give kudos to tab author, rate the tab!
1 2 3 4 5
comments
print report bad tab
guest
You may want to rate the tab now too:
select rating
Wanna post a correction for this tab? Suggest correction