Oops, an error
Loading. Please wait.

Set Me Free bass

version 1
version 1

Whole song

Interactive

574 views 3 this week
1 commentread comment
1 2 3 4 5
1 last vote to show rating
add to favorites
×
Save as Personal and add changes to this tab that will be seen only by you. Learn more ›
×
You can save this tab as Personal to edit and correct it or add notes. All changes will be seen only by you. Learn more »
launch autoscroll
font size
0
reset
guitar tuner
edit
Autoscroll
slow
fast
+/-
esc
set tempo
stop
Author
Difficulty
Set Me Free
Released in 1965 by The Kinks it reached number 9 in UK charts
Bass performance Peter Quaife. Tab by bass50611.
Extremely easy. Any comments its bass254@btinternet.com

Intro:
              .  .     .  .
G|--------|-----------------|
D|-GUITAR-|-----------------|
A|--ONLY--|-----------------|
E|--------|-3-5--5---3-5--5-|

Verse:
     .  .     .  .     .  .    .  .
G|------------------------------------------------------------------------|
D|-----------------------------------------------3---3-5---5--------------|
A|-----------------------------5--5---3---3-0---0-------------------------|
E|-3-5--5---3-4--4---3-3--3---3-----------------------------5--5---3-5--5-|

Repeat Verse:

Middle 8
   .     .     .     .     .     .
G|---------------------------------------------------------------------|
D|-9-----7-----9-----7-----9-----7-----3-3-3-3-3-3-3-3-----------------|
A|-----------------------------------------------------3-3-3-3-3-3-3-3-|
E|---------------------------------------------------------------------|
                                                             .   .
G|-----------------------------------------------------------------|
D|-----------------------------------------------------------------|
A|-0-0-0-0---5-5-5-5---7-7-7-7-7-7-7-7---0-0-0-0---5-5-5-5---7---7-|
E|-----------------------------------------------------------------|

Repeat Verse:

Repeat Middle 8

Repeat Verse:

Outro:
     .  .     .  .     .  .
G|--------------------------------|
D|--------------------------------|
A|--------------------------------|
E|-3-5--5---3-5--5---3-5--5---3-5-|

            
            
Suggest correction
Creating personal tab
Creating personal tab
You can edit any tab online and save it as your Personal.

You can edit, replace or remove any tab part or add personal notes – all changes will be seen only by you.

Personal tabs can be accessed anytime from any device, even offline.
Learn more »
Give kudos to tab author, rate the tab!
1 2 3 4 5
comments
print report bad tab
1 comment total.
0 reply
mahilu 10 Dec 15, 2013 12:26 PM

Seems pretty spot on to me when playing along. Nice one.

guest
You may want to rate the tab now too:
select rating
Wanna post a correction for this tab? Suggest correction