Oops, an error
Loading. Please wait.

Sleepwalker tab

394 views 1 this week
no commentswrite comment
1 2 3 4 5
x 3
add to favorites
×
Save as Personal and add changes to this tab that will be seen only by you. Learn more ›
×
You can save this tab as Personal to edit and correct it or add notes. All changes will be seen only by you. Learn more »
launch autoscroll
font size
0
reset
how to read this tab
guitar tuner
edit
Autoscroll
slow
fast
+/-
esc
set tempo
stop
[Intro]

   D      C     A      G           D      C      A      G
e|-10-----8-----7------5-----------10-----8------7------5------------|
B|-10-----8-----7------5-----------10-----8------7------5------------|
G|-11-----11----8------6-----------11-----11-----8------6------------|
D|-12-----10----7------5-----------12-----10-----7------5------------|
A|-12-----10----7------5-----------12-----10-----7------5------------|
E|-10-----8-----5------3-----------10-----8------5------3------------|


[Verse]

D             F#               B             G          
Everybody got problems, buddy. I got mine
D                   F#                B                 G
When midnight comes around, I start to lose my mind
D                         A
When the sun puts out the light,
           F#               G
I join the creatures of the night.  Oh


[Chorus]

   D    C        A   G             
   yeah                                
e|-------------------------------------|
B|-------------------------------------|
G|----7-5-5-5-5b-----------------------|
D|---------------7-7-5-5-5-------------|
A|-5-----------------------7-7---------|
E|-------------------------------------|


I'm a sleepwalker                        I'm a night stalker
e|----10---------8--------7--------5-----------10-----------8--------7-------5------|
B|----10---------8--------7--------5-----------10-----------8--------7-------5------|
G|----11---------11-------8--------6-----------11-----------11-------8-------6------|
D|----12---------10-------7--------5-----------12-----------10-------7-------5------|
A|----12---------10-------7--------5-----------12-----------10-------7-------5------|
E|----10---------8--------5--------3-----------10-----------8--------5-------3------|

e|----------------------------------------------------------------------------------|
B|----------------------------------------------------------------------------------|
G|----------7----5-5-5-5b------------------------------7----5-5-5-5b----------------|
D|------------------------7--7--5-5-5--------------------------------7--7--5-5-5----|
A|----5-------------------------------7-7------5--------------------------------7-7-|
E|----------------------------------------------------------------------------------|


I'm a streetwalker                           I'm a night hawker
e|----10---------8--------7--------5---------10----------------8--------7----5--=---|
B|----10---------8--------7--------5---------10----------------8--------7----5------|
G|----11---------11-------8--------6---------11----------------11-------8----6------|
D|----12---------10-------7--------5---------12----------------10-------7----5------|
A|----12---------10-------7--------5---------12----------------10-------7----5------|
E|----10---------8--------5--------3---------10----------------8--------5----3------|

e|----------------------------------------------------------------------------------|
B|----------------------------------------------------------------------------------|
G|----------7----5-5-5-5b------------------------------7-------5-5-5-5b-------------|
D|------------------------7--7--5-5-5-----------------------------------7-7--5-5----|
A|----5-------------------------------7-7-----5---------------------------------7-7-|
E|----------------------------------------------------------------------------------|


[Verse]

D             F#                B             G
Everybody got secrets that they wanna hide
D                   F#              B             G 
When midnight comes along, I take a look inside
D                        A
Don't go talkin' in your sleep
        F#            G
I might come in for a peep. Oh


[Chorus]

   D    C        A   G             
   yeah
e|-----------------------------------|
B|-----------------------------------|
G|----7-5-5-5-5b---------------------|
D|---------------7-7-5-5-5-----------|
A|-5-----------------------7-7-------|
E|-----------------------------------|

(Go up one key)

   E   D        B   A   
e|-----------------------------------|
B|-----------------------------------|
G|---9-7-7-7-7b----------------------|
D|--------------9-9-7-7-7------------|
A|-7----------------------9-9--------|
E|-----------------------------------|

      E          D         B          A      
I'm a sleepwalker
      E            D         B          A
I'm a night stalker
      E           D       B          A
I'm a Streetwalker
      E           D       B          A
I'm a night hawker


[Solo]


[Verse]

E                G#             C#m      A
When everybody's fast asleep, I start to creep
E                          G#           C#m         A
Through the shadows of the moonlight, I walk my beat
E                        B
Better close your window tight
        G#            A
I might come in for a bite Oh yeah
 

[Solo]


[Bridge]

         E                   D
When the night time comes, I start to creep
  E                        E
I prowl around when you're fast asleep
  E                 D
I walk around on my tippy toes
      E                    D
And I get into places that nobody knows

    E                    D
I'm always around if you wanna meet
        E                 D     
You can find me on almost every street
       E                    D
You'll always get me on the telephone
          E                           D
I'll even come to your home if you're ever alone


[Outro]

E D C#m C
E D C#m C
E D C#m C
E D C#m C... et cetra

e|-------------------------------------------------------------|
B|-------------------------------------------------------------|
G|-13---13h14-13-----------------------------------------------|
D|---------------16-14-----------------------------------------|
A|---------------------14h16-14--------------------------------|
E|------------------------------17-16h17-----------------------|

e|-16-16h17-16-------------------------------------------------|
B|-------------19-17-------------------------------------------|
G|-------------------18-16-16h18-16----------------------------|
D|----------------------------------19-18h19-------------------|
A|-------------------------------------------------------------|
E|-------------------------------------------------------------|



************************************

| h  Hammer-on
| b  Bend

************************************

            
            
Suggest correction
Creating personal tab
Creating personal tab
You can edit any tab online and save it as your Personal.

You can edit, replace or remove any tab part or add personal notes – all changes will be seen only by you.

Personal tabs can be accessed anytime from any device, even offline.
Learn more »
Give kudos to tab author, rate the tab!
1 2 3 4 5
comments
print report bad tab
guest
You may want to rate the tab now too:
select rating
Wanna post a correction for this tab? Suggest correction