Oops, an error
Loading. Please wait.

You Still Want Me Bass Tab

version 1
version 1

Whole song

Interactive

186 views 1 this week
no commentswrite comment
1 2 3 4 5
excellent!
x 1
add to favorites
launch autoscroll
font size
0
reset
guitar tuner
Tab Pro tools
  • play this tab
  • loop segment
  • change instrument
  • show fretboard
  • metronome
Autoscroll
slow
fast
+/-
esc
set tempo
stop
Contributor
You Still Want Me
The Kinks
Written by Ray Davies; released as a single with "You Do Something To Me" as 
the B-side.

Intro:
G|------- ------- ------- -------|------- ------- ------- -------|
D|-------------------------------|-------------------------------|
A|7-------7-------7-------7-----5|7-------7-------7-------7------|
E|-------------------------------|-------------------------------|


Verse:
G|------- ------- ------- -------|------- ------- ------- -------|
D|-------------------------------|5-------5-------5-------5------|
A|7-------7-------7-------7------|-------------------------------|
E|-------------------------------|-------------------------------|
              When you passed me  by,
                          ooooooooooooooooooooooooooooooooooooooo

G|------- ------- ------- -------|------- ------- ------- -------|
D|7-------7-------7-------7-----7|9-------9-------9-------9------|
A|-------------------------------|-------------------------------|
E|-------------------------------|-------------------------------|
                  you  didn't     look        my  way,
  ooooooooooooooooooooooooooooooooooooooooooooooooooooooooo

G|------- ------- ------- -------|------- ------- ------- -------|
D|-------------------------------|5-------5-------5-------5------|
A|7-------7-------7-------7------|-------------------------------|
E|-------------------------------|-------------------------------|
              But one thing   I   know,
  ooooooooooooooooooooooooooooooooooooooooooooooooooooooooooooooo

G|------- ------- ------- -------|------- ------- ------- -------|
D|7-------7-------7-------7------|9-------9-------9-------9------|
A|-------------------------------|-------------------------------|
E|-------------------------------|-------------------------------|
                  our love    is  here        to  stay.
  ooooooooooooooooooooooooooooooooooooooooooooooooooooooooo

G|------- ------- ------- -------|------- ------- ------- -------|
D|7-------7-------7-------7------|9-------9-------9-------9------|
A|-------------------------------|-------------------------------|
E|-------------------------------|-------------------------------|
          And     you     still   want            me,


G|------- ------- ------- -------|------- ------- ------- -------|
D|7-------7-------7-------7------|9-------9-------9-------9------|
A|-------------------------------|-------------------------------|
E|-------------------------------|-------------------------------|
              and you     still   want            me.

Verse:
G|------- ------- ------- -------|------- ------- ------- -------|
D|-------------------------------|5-------5-------5-------5------|
A|7-------7-------7-------7------|-------------------------------|
E|-------------------------------|-------------------------------|
              You wanted      the sky,
  ooooooooooooooooooooooooooooooooooooooooooooooooooooooooooooooo

G|------- ------- ------- -------|------- ------- ------- -------|
D|7-------7-------7-------7------|9-------9-------9-------9------|
A|-------------------------------|-------------------------------|
E|-------------------------------|-------------------------------|
              but I    couldn't   reach       so  high,
  ooooooooooooooooooooooooooooooooooooooooooooooooooooooooo

G|------- ------- ------- -------|------- ------- ------- -------|
D|-------------------------------|5-------5-------5-------5------|
A|7-------7-------7-------7------|-------------------------------|
E|-------------------------------|-------------------------------|
               I  gave you   my   love,
  ooooooooooooooooooooooooooooooooooooooooooooooooooooooooooooooo

G|------- ------- ------- -------|------- ------- ------- -------|
D|7-------7-------7-------7------|9-------9-------9-------9------|
A|-------------------------------|-------------------------------|
E|-------------------------------|-------------------------------|
              but you found  some o     -    ther guy.
  ooooooooooooooooooooooooooooooooooooooooooooooooooooooooo

G|------- ------- ------- -------|------- ------- ------- -------|
D|7---7---7---7---7-------7------|9---------------9-------9------|
A|-------------------------------|-------------------------------|
E|-------------------------------|-------------------------------|
          And     you     still   want            me,


G|------- ------- ------- -------|------- ------- ------- -------|
D|7-------7-------7-------7------|9-------9-------9-------9------|
A|-------------------------------|-------------------------------|
E|-------------------------------|-------------------------------|
              and you     still   want            me.         I

Bridge:
G|------- ------- ------- -------|------- ------- ------- -------|
D|-------------------------------|-------------------------------|
A|-------------------------------|-------------------------------|
E|----7---7-----------7---7------|----7---7-----------7---7---7--|
  know,       be- cause       the smile       that's on   your


G|------- ------- ------- -------|------- ------- ------- -------|
D|-------------------------------|-------------------------------|
A|7-------7-------7-------7------|-------------------------------|
E|-------------------------------|9-------9-------9-------9------|
  lips                is      for me,


G|------- ------- ------- -------|------- ------- ------- -------|
D|-------------------------------|-------------------------------|
A|9-------9-------9-------9------|9-------9-------9-------9------|
E|-------------------------------|-------------------------------|
  They       were meant       for me          to  kiss,       and


G|------- ------- ------- -------|------- ------- ------- -------|
D|-------------------------------|9-------7-------6--------------|
A|-------------------------------|------------------------9------|
E|7-------7-------7-------7------|-------------------------------|
  you        were meant       to  love    me,     dar  -  ling.

Verse:
G|------- ------- ------- -------|------- ------- ------- -------|
D|-------------------------------|5-------5-------5-------5------|
A|7-------7-------7-------7------|-------------------------------|
E|-------------------------------|-------------------------------|
                  I'll be     a - round,
  ooooooooooooooooooooooooooooooooooooooooooooooooooooooooooooooo

G|------- ------- ------- -------|------- ------- ------- -------|
D|7-------7-------7-------7------|9-------9-------9--------------|
A|-------------------------------|-------------------------------|
E|-------------------------------|-------------------------------|
                  when o  -  ther guys        have gone,
  oooooooooooooooooooooooooooooooooooooooooooooooooooooooo

G|------- ------- ------- -------|------- ------- ------- -------|
D|-------------------------------|5-------5-------5-------5------|
A|7-------7-------7-------7------|-------------------------------|
E|-------------------------------|-------------------------------|
              I   tell you   once more,
  ooooooooooooooooooooooooooooooooooooooooooooooooooooooooooooooo

G|------- ------- ------- -------|------- ------- ------- -------|
D|7-------7-------7-------7------|9-------9-------9-------9------|
A|-------------------------------|-------------------------------|
E|-------------------------------|-------------------------------|
                  I,  I     still love        you so.
  oooooooooooooooooooooooooooooooooooooooooooooooooooooooo

G|------- ------- ------- -------|------- ------- ------- -------|
D|7---7---7---7---7-------7------|9-------9-------9-------9------|
A|-------------------------------|-------------------------------|
E|-------------------------------|-------------------------------|
          And     you     still   want            me,


G|------- ------- ------- -------|------- ------- ------- -------|
D|7---7---7---7---7-------7------|9---9---9---9---9-------9------|
A|-------------------------------|-------------------------------|
E|-------------------------------|-------------------------------|
              and you     still   want            me.         I

Bridge:
G|------- ------- ------- -------|------- ------- ------- -------|
D|-------------------------------|-------------------------------|
A|-------------------------------|-------------------------------|
E|----7---7-----------7---7------|----7---7-----------7---7---7--|
  know,       be- cause       the smile       that's on   your


G|------- ------- ------- -------|------- ------- ------- -------|
D|-------------------------------|-------------------------------|
A|7-------7-------7-------7------|-------------------------------|
E|-------------------------------|9-------9-------9-------9------|
  lips                is      for me,


G|------- ------- ------- -------|------- ------- ------- -------|
D|-------------------------------|-------------------------------|
A|9-------9-------9-------9------|9-------9-------9-------9------|
E|-------------------------------|-------------------------------|
  They       were meant       for me          to  kiss,       and


G|------- ------- ------- -------|------- ------- ------- -------|
D|9-------9-------9-------9------|9-------7-------6--------------|
A|-------------------------------|------------------------9------|
E|-------------------------------|-------------------------------|
  you        were meant       to  love    me,     dar  -  ling.

Verse:
G|------- ------- ------- -------|------- ------- ------- -------|
D|-------------------------------|5-------5-------5-------5------|
A|7-------7-------7-------7------|-------------------------------|
E|-------------------------------|-------------------------------|
                  I'll be     a - round,
  ooooooooooooooooooooooooooooooooooooooooooooooooooooooooooooooo

G|------- ------- ------- -------|------- ------- ------- -------|
D|7-------7-------7-------7------|9-----------9---9--------------|
A|-------------------------------|-------------------------------|
E|-------------------------------|-------------------------------|
                  when o  -  ther guys        have gone,
  oooooooooooooooooooooooooooooooooooooooooooooooooooooooo

G|------- ------- ------- -------|------- ------- ------- -------|
D|-------------------------------|5-------5-------5-------5------|
A|7-------7-------7-------7------|-------------------------------|
E|-------------------------------|-------------------------------|
              I   tell you   once more,
  ooooooooooooooooooooooooooooooooooooooooooooooooooooooooooooooo

G|------- ------- ------- -------|------- ------- ------- -------|
D|7-------7---7---7-------7------|9-------9---9---9-------9------|
A|-------------------------------|-------------------------------|
E|-------------------------------|-------------------------------|
                  I,  I     still love        you so.
  oooooooooooooooooooooooooooooooooooooooooooooooooooooooo

G|------- ------- ------- -------|------- ------- ------- -------|
D|7-------7-------7-------7------|9-------9-------9-------9------|
A|-------------------------------|-------------------------------|
E|-------------------------------|-------------------------------|
          And     you     still   want            me,


G|------- ------- ------- -------|------- ------- ------- -------|
D|7-------7-------7-------7------|9-------9-------9-------9------|
A|-------------------------------|-------------------------------|
E|-------------------------------|-------------------------------|
              and you     still   want            me,

Outro:
G|------- ------- ------- -------|------- ------- ------- -------|
D|7-------7-------7-------7------|9---9---9---9---9---9---9------|
A|-------------------------------|----------------------------7--|
E|-------------------------------|-------------------------------|
              and you     still   want            me.


G|------- ------- ------- -------|------- ------- ------- -------|
D|-------------------------------|-------------------------------|
A|7-----------7---7-----------7--|7------------------------------|
E|-------------------------------|-------------------------------|

Please e-mail me for any corrections, or write a comment.
comments
We did not receive enough feedback on this tab! Please rate:
print report bad tab
1 2 3 4 5
I want to post or [tab]
guest
You may want to rate the tab now too:
select rating
Please do not post tabs as comments. Select "correction" instead!