Oops, an error
Loading. Please wait.

Sdp Acoustic Tab

550 views 1 this week
no commentswrite comment
1 2 3 4 5
please rate
add to favorites
launch autoscroll
font size
0
reset
how to read this tab
guitar tuner
Autoscroll
slow
fast
+/-
esc
set tempo
stop
Help us to improve Ultimate-Guitar.com Take our survey!
×
Author
THE KISSAWAY TRAIL
Song: SDP
From the album SILENT MOUNTAIN

This is my acoustic take on the song with lead and rythm guitars. Enjoy!

Chords used:


     F#m                               
e|----------|              
B|---2------|
G|---2------|
D|----------|
A|----------|
E|---2------|

     A  
e|----------|              
B|---2------|
G|---2------|
D|---2------|
A|----------|
E|----------|

     E
e|----------|              
B|----------|
G|---1------|
D|---2------|
A|---2------|
E|----------|

--------------------------
Intro  A - F#m x2

Intro Riff: 

e|-----12-9-7-------12-9-7-5-------------------------------------------------|
B|--10-----------10----------------------------------------------------------|
G|---------------------------------------------------------------------------| X2
D|---------------------------------------------------------------------------|
A|---------------------------------------------------------------------------|
E|---------------------------------------------------------------------------|

Guitar 2, first verse Riff:

e|--9------10----------------------------------------------------------------|
B|--10x16--10x16-------------------------------------------------------------|
G|---------------------------------------------------------------------------|X3
D|---------------------------------------------------------------------------|
A|---------------------------------------------------------------------------|
E|---------------------------------------------------------------------------|



A                              F#m
Humans in their spring livery.
A                                F#m
Skinny boys without much meat on them.
A
Boys licked their lips as the "war" was cut.
F#m
Movements that inflamed the girls with tears.

                     E
We'll do it for a fathers
                    F#m
We'll do it for our mothers
                     E
We'll do it for our sisters
                    F#m
We'll do it for our brothers

Guitar 2 chorus riff

TREMOLO:

e|--7-9-10-12-14-------------------------------------------------------------|
B|---------------------------------------------------------------------------|
G|---------------------------------------------------------------------------|X2
D|---------------------------------------------------------------------------|
A|---------------------------------------------------------------------------|
E|---------------------------------------------------------------------------|

Intro riff again x1
A - F#m

Guitar 2 sekond verse riff:

A
e|----0---0---0---0---0---0---0---0---0---0---0---0---0---0---0---0----------|
B|--2---2---2---2---2---2---2---2---2---2---2---2---2---2---2---2------------|
G|---------------------------------------------------------------------------|
D|---------------------------------------------------------------------------|
A|---------------------------------------------------------------------------|--
E|---------------------------------------------------------------------------|     -- 
                                                                                     X2
F#m                                                                            
e|----0---0---0---0---0---0---0---0---0---0---0---0---0---0---0---0----------|    --
B|--3---3---3---3---3---3---3---3---3---3---3---3---3---3---3---3------------|--
G|---------------------------------------------------------------------------|
D|---------------------------------------------------------------------------|
A|---------------------------------------------------------------------------|
E|---------------------------------------------------------------------------|

End with:

e|--9-----10-----------------------------------------------------------------|
B|--10x16-10x16--------------------------------------------------------------|
G|---------------------------------------------------------------------------|
D|---------------------------------------------------------------------------|
A|---------------------------------------------------------------------------|
E|---------------------------------------------------------------------------|

(Chords same as first verse)

Enemies filled with holes and gaps
And we did it with poetry.
Pads of cotton wool and gauze over our our wounds.
The beauty pales beside the films.
And the friends that you fight with all dressed in evil
Girls holding their hands

(Guitar 2 chorus riff again)

                    E
We'll do it for a fathers
                    F#m
We'll do it for our mothers
                     E
We'll do it for our sisters
                    F#m
We'll do it for our brothers

D - G - Bm
Ahh..

Riff:

e|--5-5-5-5-5-5-2-2-7-7-7-7-7-7-7-5-5-2-2-2-2-2-2-2-2-2-2-2-2-3-3-3-3---|
B|----------------------------------------------------------------------|
G|----------------------------------------------------------------------|X4
D|----------------------------------------------------------------------|
A|----------------------------------------------------------------------|
E|----------------------------------------------------------------------|

Then intro riff again

Then:
(Guitar 2 first verse riff again)

A                              F#m
Humans in their spring livery.
A                                F#m
Skinny boys without much meat on them.
A
Boys licked their lips as the "war" was cut.
F#m
Movements that inflamed the girls with tears.

                    E
We'll do it for a fathers
                    F#m
We'll do it for our mothers
                     E
We'll do it for our sisters
                    F#m
We'll do it for our brothers

Suggest correction
What's this?
You can suggest a correction to this tab. Community and Mods will review your correction and vote to approve or reject it.
comments
We did not receive enough feedback on this tab! Please rate:
print report bad tab
1 2 3 4 5
guest
You may want to rate the tab now too:
select rating
Please do not post tabs as comments. Select "correction" instead!