Oops, an error
Loading. Please wait.

Tracy Tab

551 views 1 this week
no commentswrite comment
1 2 3 4 5
3 more votes to show rating
add to favorites
launch autoscroll
font size
0
reset
how to read this tab
guitar tuner
Autoscroll
slow
fast
+/-
esc
set tempo
stop
Help us to improve Ultimate-Guitar.com Take our survey!
×
Author
The Kissaway Trail
Tracy
Tabbed by Frej Faurschou

Intro:
e[------------------------------------]
b[----------------------------1-------]
g[----2-------2-------2---------2-----]  
d[--3---3--2----2--0----0--2-------2--
a[------------------------------------]
e[------------------------------------]

Vers:
e[-------------------------------------]
b[-------------------------------------]
g[--3-3-3-3-----------3-3-3-3--5-5-5-5-]
d[--3-2-3-2--3-3-3-3--3-2-3-2--3-5-5-5-]
a[--1-1-1-1--3-3-3-3--1-1-1-1--3-3-3-3-]
e[-----------1-0-1-0-------------------
              
Tracy if we make it, we'll make a difference 
clocks will make it hard, 
carve numbers in our age 
lets start runnin' backwards like our brothers from our neighborhood 
They'll say we are dancin' but we aren't, 
but we aren't 

e[-------------------------------------------------]
b[-------------------------------------------------]
g[-------------------------------------------------]  
d[--7-7-7-7-7-7------------------------------------]
a[-------------------------------------------------]
e[-------------8-8-8-8-8-8-6-6-6-6-6-6-5-5-5-5-5-5-  -6-6-6-6-6-6-6-6-6-6-6-6-9-9-9-9-9-9-

You revolt! 
You revolt! 

reversed, began racing, became heroes 
you clutched someone elses hand 
saw grandeur in your eyes 
maching bandage, kids followed, 
now we were leaders 
but we drowned in the sound of marchin' 
of marchin' 
yeah, we drowned in the sound of marchin 
of marchin' 

if you don't know where you're going 
you don't know when you will arrive!
Suggest correction
Give kudos to tab author, rate the tab!
1 2 3 4 5
comments
print report bad tab
guest
You may want to rate the tab now too:
select rating
Wanna post a correction for this tab? Suggest correction