Oops, an error
Loading. Please wait.

Always Where I Need To Be Bass Tab

version 1
version 1

Whole song

Interactive

21,321 views 3 this week
no commentswrite comment
1 2 3 4 5
accurate
x 6
add to favorites
launch autoscroll
font size
0
reset
guitar tuner
Autoscroll
slow
fast
+/-
esc
set tempo
stop
Help us to improve Ultimate-Guitar.com Take our survey!
×
Author
Theres definetley some mistakes in this that I will come back to or you can e-mail them 
me james.b.93@hotmail.com
thanks (:


Intro - First part no bass, then...

G|----------------------------------------------------------------|
D|----------------------------------------------------------------|
A|----------------------------------------------------------------|
E|---7-67-6777-9-9-4-34-3444-12-12--------------------------------| X2

Verse - Same as Intro

G|----------------------------------------------------------------|
D|----------------------------------------------------------------|
A|----------------------------------------------------------------|
E|---7-67-6777-9-9-4-34-3444-12-12--------------------------------| X2

G|----------------------------------------------------------------|
D|----------------------------------------------------------------|
A|----------------------------------------------------------------|
E|---12--12-12--12-12-12-12--12-12--7--7-7--7-7-7-7-7-7-----------|

Chorus


G|----------------------------------------------------------------|
D|----------------------------------------------------------------|
A|--------------------------9-9--11--10-11--10-11-11-11--8-9------|
E|---12--11-12--11-12-12-12---------------------------------------| X2

Gap

G|----------------------------------------------------------------|
D|----------------------------------------------------------------|
A|----------------------------------------------------------------|
E|---7-67-6777-9-9-4-34-3444-12-12--------------------------------| X2

Verse 2

G|----------------------------------------------------------------|
D|----------------------------------------------------------------|
A|----------------------------------------------------------------|
E|---7-67-6777-9-9-4-34-3444-12-12--------------------------------| X2

G|----------------------------------------------------------------|
D|----------------------------------------------------------------|
A|----------------------------------------------------------------|
E|---12--12-12--12-12-12-12--12-12--7--7-7--7-7-7-7-7-7-----------|

Chorus


G|----------------------------------------------------------------|
D|----------------------------------------------------------------|
A|--------------------------9-9--11--10-11--10-11-11-11--8-9------|
E|---12--11-12--11-12-12-12---------------------------------------| X2

Gap

G|----------------------------------------------------------------|
D|----------------------------------------------------------------|
A|----------------------------------------------------------------|
E|---7-67-6777-9-9-4-34-3444-12-12--------------------------------| X2

Solo

G|----------------------------------------------------------------|
D|----------------------------------------------------------------|
A|----------------------------------------------------------------|
E|---7-67-6777-9-9-4-34-3444-12-12--------------------------------| X2

Alt Chorus

G|----------------------------------------------------------------|
D|----------------------------------------------------------------|
A|-----------------------------------------------11~---9-9--------|
E|---12~-------------0~------------12~----------------------------|

Gap

G|----------------------------------------------------------------|
D|----------------------------------------------------------------|
A|----------------------------------------------------------------|
E|---7-67-6777-9-9-4-34-3444-12-12--------------------------------| X2

Outro

G|----------------------------------------------------------------|
D|----------------------------------------------------------------|
A|----------------------------------------------------------------|
E|---7777777999--44444444121212--7777777999--44444444121212--7~---|
Suggest correction
comments
print report bad tab
guest
You may want to rate the tab now too:
select rating
Wanna post a correction for this tab? Suggest correction