Oops, an error
Loading. Please wait.

Always Where I Need To Be Tab

version 1
version 1

Whole song

Interactive

46,435 views 9 this week
10 commentsread comments
1 2 3 4 5
x 6
add to favorites
launch autoscroll
font size
0
reset
how to read this tab
guitar tuner
Autoscroll
slow
fast
+/-
esc
set tempo
stop
Help us to improve Ultimate-Guitar.com Take our survey!
×
Author
-------------------------------------------------------------------------------
                             ALWAYS WHERE I NEED TO BE - The Kooks
-------------------------------------------------------------------------------
Tabbed by: Oli
Email: olimorris2@gmail.com

Tuning: Standard 

Listen to the song for strumming patterns

Main Riff/Chorus
e|---7-------7---9---4-------4---4---7---------------------------------------|
B|---7-------7---9---4-------4---5---7---------------------------------------|
G|---8-------8---9---4-------4---4---8---------------------------------------|
D|---9-------9---11--6-------6---6---9---------------------------------------| 
A|---9-------9---11--6-------6---7---9---------------------------------------|
E|---7-------7---9---4-------4---4---7---------------------------------------|

(on the third time, he does this with the first chord)
e|---7---X---7---7---7-------------------------------------------------------|
B|---7---X---7---7---7-------------------------------------------------------|
G|---8---X---8---9---8-------------------------------------------------------|
D|---9---X---9---9---9-------------------------------------------------------| 
A|---9---X---9---9---9-------------------------------------------------------|
E|---7---X---7---7---7-------------------------------------------------------|

Verse
e|---4--------4--------------------------------------------------------------|
B|---5--------4--------------------------------------------------------------|
G|---4--------4--------------------------------------------------------------|
D|---6--------6--------------------------------------------------------------|
A|---7--------6--------------------------------------------------------------|
E|---4--------4--------------------------------------------------------------|

(every now and again on the second chord he will do this)
e|---4---4---4---4-----------------------------------------------------------|
B|---4---4---5---4-----------------------------------------------------------|
G|---4---4---4---4-----------------------------------------------------------|
D|---6---6---6---6-----------------------------------------------------------|
A|---6---6---6---6-----------------------------------------------------------|
E|---4---4---4---4-----------------------------------------------------------|

Main Riff/Chorus
e|---7-------7---9---4-------4---4---7---------------------------------------|
B|---7-------7---9---4-------4---5---7---------------------------------------|
G|---8-------8---9---4-------4---4---8---------------------------------------|
D|---9-------9---11--6-------6---6---9---------------------------------------| 
A|---9-------9---11--6-------6---7---9---------------------------------------|
E|---7-------7---9---4-------4---4---7---------------------------------------|

(on the last time he does this lick)


e|---7---6---4--------------------------------------------------------------|
B|---------------7---5---4---5---4 ------------------------------------------|
G|--------------------------------------------------------------------------|
D|--------------------------------------------------------------------------| 
A|--------------------------------------------------------------------------|
E|--------------------------------------------------------------------------|

Havn't figured out the solo yet but hopefully someone tabs it soon!

Enjoy!


| /  slide up
| \  slide down
| h  hammer-on
| p  pull-off
| ~  vibrato
| +  harmonic
| x  Mute note
===============================================================================
Suggest correction
comments
print report bad tab
10 comments total. Showing first comments.
0 reply
salo 10 Mar 10, 2008 06:53 AM

Sounds pretty good ! exept one chord
4 x
7 7
4 9
8 9
9 7
4 Maybe it should be x

0 reply
abba123 416 Mar 10, 2008 04:01 PM

4
7
4
8
9
4

- impossible to play

0 reply
salo 10 Mar 11, 2008 04:36 AM

last intro chros should be
x
x
9
9
7
x

guest
You may want to rate the tab now too:
select rating
Wanna post a correction for this tab? Suggest correction