Oops, an error
Loading. Please wait.

Always Where I Need To Be Chords

version 3
version 3

Interactive

131,431 views 87 this week
2 commentsread comments
1 2 3 4 5
accurate
x 5
add to favorites
launch autoscroll
font size
0
reset
transpose
0
reset
display chords
guitar tuner
Tab Pro tools
  • play this tab
  • loop segment
  • change instrument
  • show fretboard
  • metronome
×
Best way to learn
"Always Where I Need To Be"
Autoscroll
slow
fast
+/-
esc
set tempo
stop
Contributor
The Kooks - Always Where I Need To Be
tabbed by dcfc_rules

I noticed that all the tabs here are either wrong, or for the accoustic or old version 
this song.  This tab is for the album and single version.  Thanks to the other guys who 
the old version, helped me change the key and add the riffs in this one.  not 100% on the solo.

Intro:

B  C#m G#m E  x3

Verse:(no guitar, just bass for first bit)
B              C#m
She don't know who she is,
Gm            E
Oh,I can take her anywhere,
B           C#m
Do whatever comes naturally to you,
G#m               E
You know she just don't care,
                  B
You know she just don't care,

Chorus

E
'Cause I'm always where,
G#m
I need to be,
E
And I always thought,
G#m
I would end up with you eventually,

Break:

B                    C#m
do do do do do do do do,
G#m                  E
do do do do do do do do  x2

e|--7-6-4-------------|
B|--------7-5-4-5-4---|
G|--------------------|
D|--------------------|
A|--------------------|
E|--------------------|


Verse 2:

B             C#m
Now I see her again,
G#m            E
I have to be a hummingbird,
B                C#m
Whisper words in her ear,
G#m                 E
Oh, You know I just don't care,
    B
You know she just don't care,

Chorus:

E
'Cause I'm always where,
G#m
I need to be,
E
And I always thought,
G#m
I would end up with you eventually,

Break:

B                    C#m
do do do do do do do do,
G#m                  E
do do do do do do do do  x2

e|--7-6-4-------------|
B|--------7-5-4-5-4---|
G|--------------------|
D|--------------------|
A|--------------------|
E|--------------------|

Solo:

e|---------4------4-----------------------------------9--11-11h12p11-9--11--|
B|-4-5-4-5---7-7----7-4---4--------------------7-77-7-----------------------|
G|----------------------6---6-6b(8)r6-4-6-8-8-------------------------------|
D|--------------------------------------------------------------------------|
A|--------------------------------------------------------------------------|
E|--------------------------------------------------------------------------|

e|--16-14-------------16-14-------------------------|
B|--------16-14-12----------16-14-12-----16-14-12---|
G|-----------------13----------------13-------------|
D|--------------------------------------------------|
A|--------------------------------------------------|
E|--------------------------------------------------|

Chords in solo:
B C#m G#m E
B C#m G#m G#m

Break:

E
Oh I'm a man I'm a man
G#m
Oh I'm a man on the scene,
E                   G#m
I'm a man and I can be so obscene,
E                            G#m
'Cause I always think I know how to be,
E                                G#m
But I always thought I would end up with you eventually,

B                    C#m
do do do do do do do do,
G#m                  E
do do do do do do do do  x2

B                   C#m
Oh I'm a man I'm a man I
G#m                 E
Oh I'm a man on the scene,
B         C#m       G#m         E
I'm a man and I can be so obscene,

end on B
___________________________________________________

i'm pretty sure thats all right
a bit unsure on a few bits of the solo
but the notes are there i'm pretty sure

enjoy!
comments
print report bad tab
2 comments total.
0 reply
Benbroom wrote on August 7 2008, 01:13 pm

Solo:

e|--7-6-4---------------------4------4---4--------------------|
B|--------7-5-4h5p4~~-3-4-3-4---7-7~~---x--7-4----------------|
G|-------------------------------------x-------7-6-4-6b8b6p4--|
D|------------------------------------------------------------|
A|------------------------------------------------------------|
E|------------------------------------------------------------|

e|-----------------9--11-11h12p11-9--11~~-|
B|----------------------------------------|
G|--8b9~~--10b11~~------------------------|
D|----------------------------------------|
A|----------------------------------------|
E|----------------------------------------|

e|---16----------------16----------------------------------|
B|--x---19-16-------------19-16----------------------------|
G|-x----------19-18-16----------19-18-16--19p18p16-16-16~~-|
D|---------------------------------------------------------|
A|---------------------------------------------------------|
E|---------------------------------------------------------|

0 reply
aarronhamo wrote on June 23 2012, 06:32 pm

Is this solo 100% ^^^^^^^

I want to post or [tab]
guest
You may want to rate the tab now too:
select rating
Please do not post tabs as comments. Select "correction" instead!