Oops, an error
Loading. Please wait.

Bad Habit Chords

version 1
version 1

Whole song

38,416 views 171 this week
3 commentsread comments
1 2 3 4 5
x 9
add to favorites
launch autoscroll
font size
0
reset
transpose
0
reset
display chords
guitar tuner
Autoscroll
slow
fast
+/-
esc
set tempo
stop
Help us to improve Ultimate-Guitar.com Take our survey!
×
Author
Difficulty
Capo
novice
1st fret
-------------------------------------------------------------------------------
                             BAD HABIT - The Kooks
-------------------------------------------------------------------------------
Tabbed by: Ben Musgrove
E-mail: mussjunior@hotmail.co.uk

Tuning: Standard
Capo: 1st fret


[Verse 1] 

Bm Em D Cm

Baby got our head down
Baby got our head down to the ground
Looking for a stranger
Looking for a stranger to love
Bm
You got to touch your eyes and crush your tears
Bm
You gotta let go, come with me
E
Looking for a stranger
D             C#m         Bm
Looking for a stranger to love


[Chorus]

Bm D A G Em

Bm        D            A              G
   You say you want it, but you can't get it in
Bm          D   A    Em
   You got yourself a bad habit
Bm     D           A          G
   Oh look at you, you walking up and down a pole
Bm         D      A       Em
   I say breathe, stay with me
Bm        D            A        G
   You say you want it, but you can't get it in
Bm        D        A     Em
   You got yourself a bad habit
Bm        D       A              G
   Oh look at you, walking up and down a pole
Bm        D       A
   I say breathe Oh man, oh man, oh man
A
   You know I wish I had it all

Pattern remains throughout the entire song, simply alternating between chorus and verse. 
The final chorus brings
in this riff:

e|---------------------------------|
B|---------------------------------|
G|---------0---4s6-4-2-------------|
D|-----0-4---4---------4b5rb4-2-4--|
A|-2-4-----------------------------|
E|---------------------------------|

Lyrics:

Baby got our head down
Baby tryna stand down in the crowd
Looking for a stranger
Looking for a stranger to love
You got to touch your eyes and crush your tears
You gotta let go, come with me
Looking for a stranger
Looking for a stranger to love

You say you want it, but
You can't get it in
You got yourself a bad habit
Oh look at you, walking up and down a pole
I say breathe, stay with me
You say you want it, but
You can't get it in
You got yourself a bad habit
Oh look at you, walking up and down a pole
I say breathe
Oh man, oh man, oh man
You know I wish I had it all
You know I wish I had it all

You say you want it, but
You can't get it in
You got yourself a bad habit
Oh look at you walking up and down the hall
I say breathe
Oh man, oh man, oh man

You cant get it, it's a
a bad habit, such a
A bad habit such a bad bad habit
it's a, a bad habit

************************************

| b  Bend
| s  Slap

************************************
Suggest correction
comments
print report bad tab
3 comments total.
+1 reply
16marcusl 40 Apr 19, 2015 01:30 PM

Really good, but I definitely think capo on 1 is required :)

0 reply
npx 153 May 04, 2015 09:41 AM

I agree, capo 1 sounds better here. Great tab, thanks

0 reply
givicencio 340 Nov 30, 2015 01:36 PM

At minute 00:57 there are these phrases with the lead guitar:

(NO CAPO)


---------------------------
------------6b8b6--4-------
-------3----------5-5------
---3h5---5-----------------
---------------------------
---------------------------



--------------6------
--6p4-6-4-6/8---8----
---------------------
---------------------
---------------------
---------------------



-----6---8---6-8b9~--8p6---8------------------------
--/8---8---8-------------8---8--8p6---6--6b7b6-4h6--
------------------------------------8---------------
----------------------------------------------------
----------------------------------------------------
----------------------------------------------------

guest
You may want to rate the tab now too:
select rating
Wanna post a correction for this tab? Suggest correction