Oops, an error
Loading. Please wait.

Do You Love Me Still Tab

version 1
version 1

Whole song

Interactive

3,077 views 15 this week
1 commentread comment
1 2 3 4 5
please rate
add to favorites
launch autoscroll
font size
0
reset
how to read this tab
guitar tuner
Autoscroll
slow
fast
+/-
esc
set tempo
stop
Help us to improve Ultimate-Guitar.com Take our survey!
×
Author
Difficulty
-------------------------------------------------------------------------------
                             DO YOU LOVE ME STILL - The Kooks
-------------------------------------------------------------------------------
Tabbed by: Michael Greer
Email:

Tuning: Standard

  -  -  -  -  -  -  -  -  -  -  -  -  -  -  -  -  -  -  -  - 
        This is the reverb acoustic guitar in the very beginning
        of the studio version. Don't worry about it too much
e|------4-----|-----4---|-------2----|----------|
B|---5----5---|---5---5-|-----3----5-|---3h5----|
G|-6----------|---------|---4--------|----------|
D|------------|---------|-2----------|----------|
A|------------|---------|------------|----------|
E|------------|---------|------------|----------|

  -  -  -  -  -  -  -  -  -  -  -  -  -  -  -  -  -  -  -  - 

        Intro/Verse X6  (Flanger)
e|-----0---|----0----|--0---------------|
B|---------|---------|------------------|
G|-0h1-----|-2-------|--6---------------|
D|---------|---------|------------------|
A|---------|---------|------------------|
E|-0-------|-2-------|--4---------------|

        Chorus X2  (Distortion)
e|---------------------------------------------------------------------------|
B|---------------------------------------------------------------------------|
G|--9-9-9-9-9-9-9-9-9-9-9-9-9-9-9---------9--6-6-----------------------------|
D|--9-9-9-9-9-9-9-9-9-9-9-9-9-9-9---4--4--9--6-6--7-7-7-7-7-7-7-7------------|
A|--7-7-7-7-7-7-7-7-7-7-7-7-7-7-7---4--4--7--4-4--7-7-7-7-7-7-7-7------------|
E|----------------------------------2--2----------5-5-5-5-5-5-5-5------------|

e|-----4------------|
B|-----5------------|
G|---6-6-6---4------|
D|---6-6-6---4------|
A|-4-4-4-4---2------|
E|------------------|

        Verse  X4 
        Chorus X2

   Em   Bridge X16  With lots of textural guitar
e|-------------------|
B|----------5--------|
G|---5--------5------|
D|-----7--------7----|
A|-------7--------7--|
E|-5-----------------|

        Verse X3

        Outro                 hold.....
e|-----------------4-------7--------|
B|-----------------5-------9--------|
G|-----------------6-------9--------|
D|------7----------6-------9--------|
A|---7-----7-----4-4-------7--------|
E|-5--------------------------------|



************************************

| /   slide up
| \   slide down
| h   hammer-on
| p   pull-off
| ~   vibrato
| +   harmonic
| x   Mute note
| b   Bend
| pb  Pre-bend
| br  Bend release
| pbr Pre-bend release
| brb Bend release bend

************************************
Suggest correction
Give kudos to tab author, rate the tab!
1 2 3 4 5
comments
print report bad tab
1 comment total.
0 reply
BeardedMIchael 165 wrote on May 17 2013, 03:49 pm

Well done!Only a couple of corrections
1)
Intro/Verse X6 (Flanger)
e|-----0---|----0-x---|--0---------------|
B|---------|------x---|------------------|
G|-0h1-----|-2----x---|--6---------------|
D|---------|------x---|------------------|
A|---------|------x---|------------------|
E|-0-------|-2----x---|--4---------------|

2)Ending
e|-5--------------0---------|
B|-5-------5------0---------|
G|-5h6-------5----1---------|
D|-7---7-------7--2---------|
A|-7-----7--------2---------|
E|-5--------------0---------|

guest
You may want to rate the tab now too:
select rating
Please do not post tabs as comments. Select "correction" instead!