Oops, an error
Loading. Please wait.

Do You Wanna Tab

version 3
version 3

Whole song

Interactive

3,696 views 3 this week
no commentswrite comment
1 2 3 4 5
accurate
x 3
add to favorites
launch autoscroll
font size
0
reset
how to read this tab
guitar tuner
Autoscroll
slow
fast
+/-
esc
set tempo
stop
Help us to improve Ultimate-Guitar.com Take our survey!
×
Author
Flex24 93
The Kooks - Do You Wanna

tabbed by: Flex24

Rhythm Guitar (Luke Pritchart)
------------------------------


Intro:
e|-------------------|-----------------------------5---7------|
B|-------------------|------------------------------5---8-----|
G|-------------------|.-02020-0h2b3-02020--757575----5---9---.|
D|-------------------|.-02020-0h2b-302020--757575------------.|
A|------12/1\12------|----------------------------------------|
E|--5-5---------5-5--|----------------------------------------| x4


Verse 1:

Just mess around with that:

e|--0-0-----0--1-1----1-1--|
B|--1--1---1---3--3---1-1--|
G|--2---2------2------2-2--|
D|--2-----------------3-3--|
A|--0-----------------3-3--|
E|--------------------1-1--|  x3


Chorus:
e|----------------------------7777--|
B|----------------------------8888--|
G|--02020-0h2b3-02020-757575--9999--|
D|--02020-0h2b3-02020-757575--9999--|
A|----------------------------7777--|
E|----------------------------7777--| x2


Intro

Verse2: (same as Verse 1)

Chorus

Intro

Verse3:( there luke plays nothing)

Chorus

Intro x4



Lead Guitar (Hugh Harris)
-------------------------

Intro:

e|------------------|-----------------------------------------------------|
B|----10b~----------|--10b~-10p8----------10b~-------10b~-------10b~------|
G|------------------|------------7-9h----------9-9~~-----9-9~~--------9~~-|
D|------------------|-----------------------------------------------------|
A|------------------|-----------------------------------------------------|
E|------------------|-----------------------------------------------------|

e|-------------|
B|--10b~-------|
G|--------9~~--|
D|-------------|
A|-------------|
E|-------------|

Verse1:

e|------------------------------|
B|------------------------------|
G|------------------------------|
D|------------------------------|
A|------------------------------|
E|--5-----------5\1--1-1/10-10--|

Chorus:
e|-----------------------------5--7-----|
B|------------------------------5--8----|
G|--02020-0h2b3-02020--757575----5--9---|
D|--02020-0h2b3-02020--757575-----------|
A|--------------------------------------|
E|--------------------------------------| x2

Then
e|--------------------------------------|
B|--------------------------------------|
G|--987-5-987-5-987-987-5-987-5-987-----|
D|--987-5-987-5-987-987-5-987-5-987-7---|
A|----------------------------------7---|
E|--------------------------------------|

Verse2:
(same as verse 1)

Chorus

Verse3:
e|---------------------------------------------------------|
B|---------------------------------------------------------|
G|------------------------9-----9--------------------------|
D|---------------------------------------------------------|
A|---------------------00---000--0-------------------------|
E|--5-----------5\1----------------|:-5\1--10-:|-x5--------|


Chorus

then
e|--------------------------------------|
B|--------------------------------------|
G|--987-5-987-5-987-987-5-987-5-987-----|
D|--987-5-987-5-987-987-5-987-5-987-7---|
A|----------------------------------7---|
E|--------------------------------------| x6

------------------------------------------
b~...bend half notes up and down
~~...just bend a little bit
/... slide up
\... slide down
Suggest correction
What's this?
You can suggest a correction to this tab. Community and Mods will review your correction and vote to approve or reject it.
comments
We did not receive enough feedback on this tab! Please rate:
print report bad tab
1 2 3 4 5
guest
You may want to rate the tab now too:
select rating
Please do not post tabs as comments. Select "correction" instead!