Oops, an error
Loading. Please wait.

Eddies Gun Tab

version 1
version 1

Whole song

Interactive

14,235 views 15 this week
1 commentread comment
1 2 3 4 5
accurate
x 11
add to favorites
launch autoscroll
font size
0
reset
how to read this tab
guitar tuner
Autoscroll
slow
fast
+/-
esc
set tempo
stop
Help us to improve Ultimate-Guitar.com Take our survey!
×
Author
I don't know if it's right but thats the Way I'm playin it.
Don't get to hard on your comments it's my first tab ;)


d = Downstrokes
u = Upstrokes

Intro:  Play " A "  a couple of times ( Best in Barre , 5th fret ).Then

    d u d  u  u d u       
e|--0-0----0--0-0-0----------------------------------------------|
B|--2-2-x--3--3-3-2----------------------------------------------|
G|--2-2-x--2--2-2-2------Repeat 4 Times -------------------------|
D|--2-2-x--2--2-2-2----------------------------------------------|
A|--0-0----0--0-0-0----------------------------------------------|
E|---------------------------------------------------------------|




  A             Bm       D        A ( always play this A like in the Intro)
Did you see the way she looked at me
  A             Bm       D        A
A honeybee got two lives and she's got me

  F#m         E       Bm
I tried to love her back  , and then
  F#m         E        Bm
I shrunk back into my wrap
          D
And in the barrel of my gun
  C#m            Bm      A
I hope i'm not the only one

  A           Bm       D      A
Yes i see the way she looked at me  ,
  A                    Bm      D        A
She's got an eye for an awkward guy like me

  F#m       E        Bm    
I tried to love her back (she's just a girl),  And then
  F#m         E       Bm
I shrunk back into my wrap (she's just a girl)
           D
And in the barrel of my gun
 C#m              Bm    A
I hope i'm not the only one
           D
And in the barrel of my gun
 C#m               Bm    A
I hope i'm not the only one.


Play "A" Barre lots of times (just figure it out by listening to the song)

Solo 1:

e|--0-----------------------------------------------------------------|
B|--x--------------------------------------------2-2------------------|
G|-11---9~-9-9-9-9-------------------------4^6------4^6--4~~--1-2-1~~-|
D|--------------------------------------------------------------------|
A|----------------------5-5-4-2-4-------------------------------------|
E|--------------------------------5-2~~---------------------------------|
                        do do do do do doo do, de do do doo dep do 

e|---1s2---0-------12-------------------------------------------------|
B|---2s3---2-------14/17~~--------------------------------------------|
G|--------------------------------------------------------------------|
D|--------------------------------------------------------------------|
A|--------------------------------------------------------------------|
E|--------------------------------------------------------------------|

 
  F#m       E        Bm    
I tried to love her back (she's just a girl),  And then
  F#m         E       Bm
I shrunk back into my wrap (she's just a girl)
           D
And in the barrel of my gun
 C#m              Bm    A
I hope i'm not the only one
           D
And in the barrel of my gun
 C#m               Bm    A
I hope i'm not the only one.


Play "A" Barre again some times

Solo 2:

e|---------------------------9/17~~-----------------------------------|
B|--------------------------------------------------------------------|
G|--14/13-13/11-11/9-9/7-7/6~-----------------------------------------|
D|--------------------------------------------------------------------|
A|--------------------------------------------------------------------|
E|--------------------------------------------------------------------|

 D                 C#m
I tried to love her back
    Bm       A
And then i shrunk back in my wrap
            D
And then i tried to love
C#m         Bm        A
I tried to love her back.

Outro:

e|---------------------------------------------------------5-----------|
B|---------------------------------------------------------5-----------|
G|----6--7-7^9^7-------------------------------------------6-----------|
D|----7----------7----0-(Guess its supposed to sound odd)--7-----------|
A|----7------------7---------------------------------------7-----------|
E|----------------------3~~--------------------------------5-----------|


Suggest correction
comments
print report bad tab
1 comment total.
0 reply
Vintage87 30 wrote on April 3 2006, 05:53 am

Just found 2 little mistakes in my tab.

In the first Solo :

e|--0--------------------------------------------------------------|
B|--x-----------------------------------------2-2------------------|
G|-11---9~-9-9-9-9----------------------4^6------4^6--4~~--1-2-1~~-|
D|-----------------------------------------------------------------|
A|----------------------5-5-4-2-4----------------------------------|
E|---------------------------------5-2~----------------------------|



And in the outro :

e|--------------------------------------------------------5---------|
B|--------------------------------------------------------5---------|
G|----6--7-7^9^7------------------------------------------6---------|
D|----7----------7----0-(Guess its supposed to sound odd)-7---------|
A|----7------------7--------------------------------------7---------|
E|----------------------3~~-------------------------------5---------|

guest
You may want to rate the tab now too:
select rating
Please do not post tabs as comments. Select "correction" instead!