Oops, an error
Loading. Please wait.

Eskimo Kiss bass

401 views 1 this week
no commentswrite comment
1 2 3 4 5
1 last vote to show rating
add to favorites
×
Save as Personal and add changes to this tab that will be seen only by you. Learn more ›
×
You can save this tab as Personal to edit and correct it or add notes. All changes will be seen only by you. Learn more »
launch autoscroll
font size
0
reset
guitar tuner
edit
Autoscroll
slow
fast
+/-
esc
set tempo
stop
Author
-------------------------------------------------------------------------------
                        ESKIMO KISS - The Kooks
-------------------------------------------------------------------------------
Tabbed by: dolson128

Tuning: Standard (EADG)

Transcribed from Kanal von MrMisterbeHappy (https://youtu.be/6-zOjVW0RLI)

Intro (0:06)
G|------------------------------|--------------------------------|
D|------------------------------|---------------------------4----|
A|--4---4---4---4---4---4/6--7--|--------------------------------|
E|------------------------------|-6---6---6---6---2---2---2---2--|

G|------------------------------|--------------------------------|
D|-----------------4/7--6---6---|--------------------------------|
A|--4---4---4---4---------8-----|--------------------------------|
E|----------------------------9-|-6---6---6---6---2---2---2---2--|

Verse 1 (0:19)
G|------------------------------|--------------------------------|
D|------------------------------|-----------------------------4--|
A|--4---4---4---4---4---4/6-6-8-|--------------------------------|
E|------------------------------|-6---6---6---6---2---2---2------|
      We had so much fun.            She gave me an eskimo kiss.

G|------------------------------|--------------------------------|
D|------------------------------|-----------------------------4--|
A|--4---4---4---4---4---4/6-6-8-|--------------------------------|
E|------------------------------|-6---6---6---6---2---2---2------|
     We put our records on         and set sail towards the
                       
G|------------------------------|-----------------------------|
D|--7---7---7---7---7---7---7-9-|-----------------------------|
A|------------------------------|--4---4---4--4/16--16--16\4--|
E|------------------------------|-----------------------------|
    sun              Ooh it's so much fun   

Chorus (0:38)           
G|---------------------------------|
D|--------3---4---4---4-0---6--6-6-|
A|--4--6------------------6--------|
E|---------------------------------|
   She's like the rose... 

G|----------------------------------------------|
D|-6-8--8-6------6-------4---4--4--4--4--4/8-6--|
A|-----------4h8---8\4--------------------------|
E|----------------------2---2-------------------|
  She's like the sunflower that never looks back at the sun

G|--------------------------------|----------------------------------------|
D|-6-6--6-8--8-6------------------|---------------3---4---4---4-0---6--6-6-|
A|-----------------4---4---4---4--|-4---4---4--6------------------6--------|
E|--------------------------------|----------------------------------------|
 And she sees me running                    She's like the diamond in the rough

G|-----------------------------------------------|
D|-----------------------------------------------|
A|-6-8--8-6---3---3-6-3--1--1--1-----------------|
E|-------------------------------4--2--2--2/5-4--|
   She's like the first girl on this earth that you wanted to touch

G|-------------------------------------|------------------------------|
D|-------------------------------------|------------------------------|
A|-4/8--4---4---4---4---4---4---4-6-4--|-1---1---1---1---9---9---9\4--|
E|-------------------------------------|------------------------------|
   And she sees me running

Verse 2 (1:09)
G|------------------------------|--------------------------------|
D|------------------------------|-----------------------------4--|
A|--4---4---4---4---4---4/6-6-8-|--------------------------------|
E|------------------------------|-6---6---6---6---2---2---2------|
We went back to her place          Her father said I had the wrong face

G|------------------------------|--------------------------------|
D|-----------------4/7--6---6---|--------------------------------|
A|--4---4---4---4---------8-----|--------------------------------|
E|----------------------------9-|-6---6---6---6---2---2---2---2--|
I put another one on              We set sail, as the night gets long

G|------------------------------|-----------------------------|
D|--7---7---7---7---7---7---7-9-|-----------------------------|
A|------------------------------|--4---4---4--4/16--16--16\4--|
E|------------------------------|-----------------------------|
     Oh, it's so much fun!

Chorus 2 (1:29)
G|---------------------------------|
D|--------3---4---4---4-0---6--6-6-|
A|--4--6------------------6--------|
E|---------------------------------|
   She's like the rose...         

G|----------------------------------------------|
D|-6-8--8-6------6-------4---4--4--4--4--4/8-6--|
A|-----------4h8---8\4--------------------------|
E|----------------------2---2-------------------|
  She's like the sunflower that never looks back at the sun

G|--------------------------------|----------------------------------------|
D|-6-6--6-8--8-6------------------|---------------3---4---4---4-0---6--6-6-|
A|-----------------4---4---4---4--|-4---4---4--6------------------6--------|
E|--------------------------------|----------------------------------------|
 And she sees me running                    She's like the diamond in the rough

G|-----------------------------------------------|
D|-----------------------------------------------|
A|-6-8--8-6---3---3-6-3--1--1--1-----------------|
E|-------------------------------4--2--2--2/5-4--|
   She's like the first girl on this earth that you wanted to touch

G|---------------------------------|------------------------------------------|
D|---------------------------------|------------------------------------------|
A|-4/11-11--4---4---4---4---4---4--|--16--16-16--16--15--15---14--------------|
E|---------------------------------|------------------------------16--15------|
And she's touching, touch yeah

Guitar Solo (1:59)
G|--------------------------|----------------------------------------|
D|-----------------11-------|-1---3----------------------------------|
A|----------4-4/11-----11\1-|---------1--1---------------------------| 
E|-4------4-----------------|---------------4---2---6---4--4--6--4---|

Bridge (2:14)
G|--------------------------|----------------------------------------|
D|-----------------11-------|-1---3----------------------------------|
A|----------4-4/11-----11\1-|---------1--1---------------------------| x2
E|-4------4-----------------|---------------4---2---6---4--4--6--4---|
   Oh, lonely bones            Well I'm coming through...

Outro (2:43)
G|---------------------------------|----------11------------|
D|---------------------------------|------11-----11---------|
A|--4---4---4---4---4---4---4---4--|--9-------------10--8---|
E|---------------------------------|------------------------|
And it goes la la la la la

G|----------------------------|------------------------------|
D|----------------------------|--5--5------5--7--7--8-6------|
A|--6--6--8---6--1--3--4--1---|--------5----------------8-6--|
E|----------------------------|------------------------------|
 La la la la la                 la la la la la 

G|-------------------------------------------|---------------------------|
D|------------------------------11--11-------|--------3------------------|
A|-4--4--4--4--4--4--4--4--4/11--------11\1--|--1--1-----4-1--4--3--1----|
E|-------------------------------------------|---------------------------|
And it goes la la la la                        Did you ever wonder why...

G|--------------------------------------|
D|--5--5------5--7--7--8-6--------------|
A|--------5----------------8-6---4------|
E|--------------------------------------|

| /  slide up
| \  slide down
| h  hammer-on
| p  pull-off
| ~  vibrato
| +  harmonic
| x  Mute note
===============================================================================

            
            
Suggest correction
Creating personal tab
Creating personal tab
You can edit any tab online and save it as your Personal.

You can edit, replace or remove any tab part or add personal notes – all changes will be seen only by you.

Personal tabs can be accessed anytime from any device, even offline.
Learn more »
Give kudos to tab author, rate the tab!
1 2 3 4 5
comments
print report bad tab
guest
You may want to rate the tab now too:
select rating
Wanna post a correction for this tab? Suggest correction