Oops, an error
Loading. Please wait.

Fa La La Bass Tab

481 views 3 this week
no commentswrite comment
1 2 3 4 5
please rate
add to favorites
launch autoscroll
font size
0
reset
guitar tuner
Autoscroll
slow
fast
+/-
esc
set tempo
stop
Help us to improve Ultimate-Guitar.com Take our survey!
×
Author
Difficulty
novice
-------------------------------------------------------------------------------
                             Fa La La – The Kooks
-------------------------------------------------------------------------------
Tabbed by: wbalston

Tuning: standard

One of my favorite songs by the Kooks. Off their RAK CD. Fun funky bass part, pretty 
easy to hear timing and everything.

Bass enters at :20

1st part x4
G|---------------------------------------------------------------------------|
D|---------------------------------------------------------------------------|
A|-3~------------------------------------------------------------------------|
E|-----1~----0~---3~---------------------------------------------------------|


Guitar bit (:44)
G|---------------------------------------------------------------------------|
D|---------------------------------------------------------------------------|
A|-----------------------------3---33----------------------3~----------------|
E|-1---11----3---33----5---55-----------1---11----3---33---------------------|


Verse part 2 (:56) x11
G|---------------------------------------------------------------------------|
D|---------------------------------------------------------------------------|
A|-3---3---0h3--3-5----------------------------------------------------------|
E|------------------0----1---1---0---0-1-3-----------------------------------|

On the 12th time do this
G|---------------------------------------------------------------------------|
D|---------------------------------------------------------------------------|
A|-3---3---0h3--3-3----------------------------------------------------------|
E|------------------0--3------3---3-------3----------------------------------|

FA LA LA LAAAAA (2:01) x3
On the last one just keep playing E |-3-| until the guitar bit picks up, and play the 
guitar bit line until the end.
G|---------------------------------------------------------------------------|
D|---3---2-------------------------------------------------------------------|
A|-----------3---------------------------------------------------------------|
E|---------------3--3----3-3---33---3----------------------------------------|
Suggest correction
Give kudos to tab author, rate the tab!
1 2 3 4 5
comments
print report bad tab
guest
You may want to rate the tab now too:
select rating
Please do not post tabs as comments. Select "correction" instead!