Oops, an error
Loading. Please wait.

Fa La La Tab

4,144 views 3 this week
1 commentread comment
1 2 3 4 5
excellent!
x 5
add to favorites
launch autoscroll
font size
0
reset
how to read this tab
guitar tuner
Tab Pro tools
  • play this tab
  • loop segment
  • change instrument
  • show fretboard
  • metronome
×
Best way to learn
"Fa La La"
Autoscroll
slow
fast
+/-
esc
set tempo
stop
Contributor
Fa La La
The Kooks
Tabbed By AwesomeHill
Words & Music by Hugh Harris


MMMMMMMMMMZ
F    G#    C
C
You're out there having fun
F      Em     G
And I need you
C
I'm alone with this song
F            Em
About being empty
 C
And the fear of missing out
F             Em            G
It's hard to be alone
C
Nineteen miles I've walked
F       Em       G
Up and down the hall
F-G - Am - C
     |----3----|                       |----3----|                
     Q    Q    Q      E   E   Q        Q    Q    Q    E  E  Q     
E||-------1----1S----13--12--10----|--------8--------------------|
B||--------------------------------|------------------8--6--5----|
G||--2---------2S----14--12--10----|--/9---------9----9--7--5----|
D||--------------------------------|-----------------------------|
A||--------------------------------|-----------------------------|
E||--------------------------------|-----------------------------|





F - G# - C
  |----3----|    |----3----|            |-----3----|           
  Q    Q    Q    Q    Q    Q       Q    Q    Q     Q    Q      
-------1--------------4---------|--8-------------------------||
--------------------------------|-------8--------------------||
--2---------2----5---------5----|--9---------9---------------||
--------------------------------|-----------------10----L----||
--------------------------------|----------------------------||
--------------------------------|----------------------------||
Long hall
C
Oh god I miss my girl
 F                 Em      G
It's only been a night
C
I miss the last time
F            Em          G
That we had a fight
C
Isn't it sad?
F               Em           G
Won't you say it's bad?
 C
I don't care and if I have to
F             Em         G        
I'll read your books Cause they'll remind me of 
C
You
F             Em     G
And I'll learn your notes, So that I have a
C
Clue
And I'll watch your films
F         Em   G                 C
So I'll know them through and through
                  F            Em  G      C
And I'll do the things that remind me of you
                  F       Em  G    C
And I'll wash my hair in your shampoo
                   F
And I'll buy your perfume
      Em     G         C
And spray it round my room
                     F
And I'll smoke your cigarettes
    Em      G      C
So that I'm dying too
                   G
And I'll call you up
F  Am  C  G
Fa la la la
F  Am  C  G
Fa la la la
F  Am  C  G
Fa la la la
G
Oh
F-G - Am - C
     |----3----|                       |----3----|                
     Q    Q    Q      E   E   Q        Q    Q    Q    E  E  Q     
E||-------1----1S----13--12--10----|--------8--------------------|
B||--------------------------------|------------------8--6--5----|
G||--2---------2S----14--12--10----|--/9---------9----9--7--5----|
D||--------------------------------|-----------------------------|
A||--------------------------------|-----------------------------|
E||--------------------------------|-----------------------------|

Am I sane?



F-G - Am - C
     |----3----|                       |----3----|                
     Q    Q    Q      E   E   Q        Q    Q    Q    E  E  Q     
E||-------1----1S----13--12--10----|--------8--------------------|
B||--------------------------------|------------------8--6--5----|
G||--2---------2S----14--12--10----|--/9---------9----9--7--5----|
D||--------------------------------|-----------------------------|
A||--------------------------------|-----------------------------|
E||--------------------------------|-----------------------------|

Am I sane?
F-G - Am - C
     |----3----|                       |----3----|                
     Q    Q    Q      E   E   Q        Q    Q    Q    E  E  Q     
E||-------1----1S----13--12--10----|--------8--------------------|
B||--------------------------------|------------------8--6--5----|
G||--2---------2S----14--12--10----|--/9---------9----9--7--5----|
D||--------------------------------|-----------------------------|
A||--------------------------------|-----------------------------|
E||--------------------------------|-----------------------------|

Am I sane?
F-G - Am - C
     |----3----|                       |----3----|                
     Q    Q    Q      E   E   Q        Q    Q    Q    E  E  Q     
E||-------1----1S----13--12--10----|--------8--------------------|
B||--------------------------------|------------------8--6--5----|
G||--2---------2S----14--12--10----|--/9---------9----9--7--5----|
D||--------------------------------|-----------------------------|
A||--------------------------------|-----------------------------|
E||--------------------------------|-----------------------------|

F-G - Am - C x2
     |----3----|                       |----3----|                
     Q    Q    Q      E   E   Q        Q    Q    Q    E  E  Q     
E||-------1----1S----13--12--10----|--------8--------------------|
B||--------------------------------|------------------8--6--5----|
G||--2---------2S----14--12--10----|--/9---------9----9--7--5----|
D||--------------------------------|-----------------------------|
A||--------------------------------|-----------------------------|
E||--------------------------------|-----------------------------|

Mmmmz
F - G# 
  |----3----|    |----3----|            |-----3----|           
  Q    Q    Q    Q    Q    Q       Q    Q    Q     Q    Q      
-------1--------------4---------|--8-------------------------||
--------------------------------|-------8--------------------||
--2---------2----5---------5----|--9---------9---------------||
--------------------------------|-----------------10----L----||
--------------------------------|----------------------------||
--------------------------------|----------------------------||
C – End Chord


Duration Legend
W - whole
H - half
Q - quarter
E - 8th
S - 16th
T - 32nd
X - 64th
. - note dotted
|-n-|  - n-triplets


Tablature Legend

L - tied note
x - dead note
g - grace note
(n) - ghost note
> - accentuated note
NH - natural harmonic
AH - artificial harmonic
TH - tapped harmonic
SH - semi harmonic
PH - pitch harmonic
h - hammer on
p - pull off
b - bend
br - bendRelease
pb - preBend
pbr - preBendRelease
brb - bendReleaseBend
\n/ - tremolo bar dip
\n - tremolo bar dive
-/n - tremolo bar Release up
/n\ - tremolo bar inverted dip
/n - tremolo bar return
-\n - tremolo bar Release down
S - shift slide
s - legato slide
/ -  slide into from below or out of upwards
\ -  slide into from above or out of downwards
~ - vibrato
W - wide vibrato
tr - trill
TP - tremolo picking
T - tapping
S - slap
P - pop
< - fade in
^ - brush up
v - brush down
comments
print report bad tab
1 comment total.
0 reply
robin.meinert wrote on September 22 2015, 02:57 am

I play it that way an it sounds quite correct



Q Q Q E E Q Q Q Q E E Q
E||-------1----1S----13--12--10----|--------8--------------------|
B||--------------------------------|----------10-----12--10--8---|
G||--2---------2S----14--12--10----|--/9-------------12--10--9---|
D||--------------------------------|-----------------------------|
A||--------------------------------|-----------------------------|
E||--------------------------------|-----------------------------|

I want to post or [tab]
guest
You may want to rate the tab now too:
select rating
Please do not post tabs as comments. Select "correction" instead!