Oops, an error
Loading. Please wait.

Gap Bass Tab

8,962 views 6 this week
no commentswrite comment
1 2 3 4 5
excellent!
x 3
add to favorites
launch autoscroll
font size
0
reset
guitar tuner
Autoscroll
slow
fast
+/-
esc
set tempo
stop
Help us to improve Ultimate-Guitar.com Take our survey!
×
Author
Joel B. 615
-------------------------------------------------------------------------------
			     Gap - The Kooks
-------------------------------------------------------------------------------

Tabbed By : Joel B.

Tuning:Standard

There aren't many Kooks tabs, so I starteted to figure this song out.
I hope that anything will be right, if not, please comment and correct.
Have fun and please rate (:

Intro: Bass comes in at 0:05
G|--------|--------|--------------------|
D|--------|--------|----8----10---------|
A|--------|-----15\|-10---10----10-8----|
E|--------|--------|-----------------10-|

Verse:
G|---------------|----8---8-------|---------------|----------------|
D|---------------|--8---8---8-----|---------------|-----8-----10---|
A|-10--10--10----|6-----------6---|-5--5--5-------|-5/6---6/8------|
E|---------------|----------------|---------------|----------------|

G|---------------|----8---8-------|---------------|----------------|
D|---------------|--8---8---8-----|---------------|-----8-----10---|
A|-10--10--10----|6-----------6---|-5--5--5-------|-5/6---6/8----8-|
E|---------------|----------------|---------------|----------------|
            ..So put a spanner in the works..
G|---------------|----8---8-------|---------------|----------------|
D|---------------|--8---8---8-----|---------------|-----8-----10---|
A|-10--10--10----|6-----------6---|-5--5--5-------|-5/6---6/8------|
E|---------------|----------------|---------------|----------------|

G|---------------|----8---8-------|---------------|----------------|
D|------------12-|--8---8---8-----|---------------|-----8-----10\--|
A|-10--10--10----|6-----------6---|-5--5--5-------|-5/6---6/8------|
E|---------------|----------------|---------------|----------------|

G|---------------|----8---8-------|---------------|----------------|
D|------------12-|------8---8-----|---------------|-----8-----10---|
A|-10--10--10----|------------6---|-5--5--5-------|-5/6---6/8----8-|
E|---------------|----------------|---------------|----------------|
                              I'll do in my life...
G|---------------|----8---8-------|---------------|
D|------------12-|------8---8-----|---------------|
A|-10--10--10----|-10----------6--|-5-5-5-5-------|
E|---------------|----------------|---------8-8-8\|

Chorus: ..I have to break down all..
G|--------------------------------------------|
D|--------------------------------------------|
A|--------6--6-6---6----------10-----8--------|
E|-4--4-4-------------6-6-6/8----8\6----------|

G|--------------8----------------------------|
D|-------------------------------------------|
A|-----6----6-6---6-------------10-----8-----|
E|-4-4---4-----------6-6-6--6/8----8\6-------|

G|-------------------------------------------|
D|---------13-13-----------------------------|
A|---------------13--------------------------|
E|-4-4-/11----------6-6-6--8-8-6-6-----------|

  ..And I miss you.. and I need you..
G|-------------------------------------------|
D|-------------------------------------------|
A|----------6--------------------------------|
E|--4----------------6--------------\--------|

                ..But dont' go..
G|--------------------------------------------------|
D|----JUST GUITAR AND VOCALS------------------------|
A|--------------------------------------------------|
E|--------------------------------------------------|
1:21
G|------------------------------|
D|------------------------------|
A|------------------------------|
E|-0h6--0h6---------------------|

Verse:
G|---------------|----8---8-------|---------------|-------------------|
D|---------------|--8-------8-----|---------------|-----8-----10------|
A|-10--10/-17----|6-----------6---|-5--5--5-------|-5/6---6/8---------|
E|---------------|----------------|---------------|-------------------|

G|---------------|----8---8-------|---------------|----------------|
D|---------12----|--8-------8-----|---------------|----------------|
A|-10--10-----10-|6---------------|-5--5--5-------|-5/6-6--6/8-8---|
E|---------------|----------------|---------------|----------------|

..Well leave your lover now..
G|---------------|----------------|---------------|----------------|
D|---------------|-----8---8-8----|---------------|-----8-----10\--|
A|-10--10--10----|-6-6---------6--|-5--5--5-------|-5/6---6/8------|
E|---------------|----------------|---------------|----------------|

G|---------------|----8---8-------|---------------|----------------|
D|------------12-|--8---8---8-----|---------------|-----8-----10---|
A|-10--10--10----|6-----------6---|-5--5--5-------|-5/6---6/8------|
E|---------------|----------------|---------------|----------------|

G|---------------|--8-----8-------|---------------|----------------|
D|---------------|----8-----8-----|---------------|-----8-----10---|
A|-10--10--10----|------6---------|-5-5-5---------|-5/6---6/8------|
E|---------------|----------------|---------------|----------------|
                                   ..I'll do in our lives..
G|---------------|----------------|--------------------------|
D|---------------|-----8---8-8----|--------------------------|
A|-10--10--10----|-6-6---------6--|-5-5-5--------------------|
E|---------------|----------------|-------8-8-8-8-8-8-8-8----|

Chorus:
G|------------8---------------------------------|
D|----------------------------------------------|
A|-------6-6---6----------10-----8--------------|
E|-4--4-----------6-6-6/8----8\6----------------|

G|--------------8----------------------------|
D|-------------------------------------------|
A|-----6----6-6---6-------------10-----8-----|
E|-4-4---4-----------6-6-6--6/8----8\6-------|

G|-------------------------------------------|
D|---------13-13-----------------------------|
A|---------------13--------------------------|
E|-4-4-/11----------6-6-6--8-8-6-6-----------|

..And I miss you and I need you..
G|-------------------------------------------|
D|-------------------------------------------|
A|----------6--------------------------------|
E|--4----------------6--------------\--------|

..But don't go..
G|--------------------------------------------------|
D|--------------------------------------------------|
A|-----JUST GUITAR AND VOCALS-----------------------|
E|--------------------------------------------------|

End: ..take my love..I won't let you..
G|------------------------------|
D|------------------------------|
A|-6/10-10-10--8--6-------------|
E|------------------------------|

G|----------------------------------------|
D|----------------------------------------|
A|--8-8-8-8-8-8-8-8/10-10-10-10\6-6-6-6---|
E|----------------------------------------|

G|----------------------------------------|
D|----------------------------------------|
A|--6-6-6-6-6-6-6-6/8-8-8-8\6-6-6-6-------|
E|----------------------------------------|

G|----------------------------------------|
D|----------------------------------------|
A|----------------------------------------|
E|-4-4-4-4-4-4-4-4------------------------|

G|----------------------------------------|
D|----------------------------------------|
A|--8-8-8-8-8-8-8-8/6-6-6-6-6-6-6-6-------|
E|----------------------------------------|

G|----------------------------------------|
D|----------------------------------------|
A|----------------------------------------|
E|-4-4-4-4-4-4-4-4-4-4-4-4-4-4-4-4--------|

3:11
G|----------------------------------------|
D|----------------------------------------|
A|----------------------------------------| x3
E|-4-4-4-4\3-3-3-3/6-6-6-6-6-6-6-6--------|

G|----------------------------------------|
D|----------------------------------------|
A|-------6--------------------------------|x3
E|--4---------6----8----6-----------------|

G|----------------------------------------|
D|----------------------------------------|
A|-------6--------------------------------|
E|--4---------6---------------------------|

| /  slide up
| \  slide down
| h  hammer-on
| p  pull-off
| ~  vibrato
| +  harmonic
| x  Mute note


Questions:
Email: skaterknoedel@hotmail.de
===============================================================================
Suggest correction
What's this?
You can suggest a correction to this tab. Community and Mods will review your correction and vote to approve or reject it.
comments
We did not receive enough feedback on this tab! Please rate:
print report bad tab
1 2 3 4 5
guest
You may want to rate the tab now too:
select rating
Please do not post tabs as comments. Select "correction" instead!