Oops, an error
Loading. Please wait.

Got No Love Chords

10,415 views 6 this week
1 commentread comment
1 2 3 4 5
accurate
x 7
add to favorites
launch autoscroll
font size
0
reset
transpose
0
reset
display chords
guitar tuner
Autoscroll
slow
fast
+/-
esc
set tempo
stop
Help us to improve Ultimate-Guitar.com Take our survey!
×
Difficulty
novice
(There is a long G on the bottom E string before the main riff comes in).

Intro and main riff
|-----------------------|
|--------0--------------|
|-----------0-----0-----|
|-----0-----------------|
|--------------3--------|
|--3-----------------3--|

you, you aint got no love today
you, you aint got no love today  - For these two lines just play the riff

Em    D                  G
   don't let them bring you down

you, you aint got no love today
you, you aint got no love today - do the same here
Em   D                  G
   don't let them bring you down
|-----------| 
|-4-5-4-5-4-|
|-----------|
|-----------|
|-----------|
|-----------|

Em            D              C      G   
   hold on, don't let them bring you down
Em            D              C      G     G
   hold on, don't let them bring you down
|--------------|
|--------------|
|------------0-|
|--------0-2---|
|----0-2-------|
|--3-----------|

Em    D                  G
   don't let them bring you down
Em    D                  G
   don't let them bring you down

|-----------| 
|-4-5-4-5-4-|
|-----------|
|-----------|
|-----------|
|-----------|

got no love 
got no love - Dont play anything here

I think this is right it sounds pretty much the same!
Suggest correction
comments
print report bad tab
1 comment total.
+1 reply
indie-rob 10 wrote on February 2 2007, 10:30 pm

its easy to play the riff like this. you can just have your fingers in the G major position in the third fret. sounds the same.

|-----------------------|
|-----------------------|
|--------4--------------|
|-----------5-5-----5---|
|-----5----------3------|
|--3--------------------|

guest
You may want to rate the tab now too:
select rating
Please do not post tabs as comments. Select "correction" instead!