Oops, an error
Loading. Please wait.

If Only Bass Tab

4,859 views 1 this week
1 commentread comment
1 2 3 4 5
excellent!
x 3
add to favorites
launch autoscroll
font size
0
reset
guitar tuner
Autoscroll
slow
fast
+/-
esc
set tempo
stop
Help us to improve Ultimate-Guitar.com Take our survey!
×
Contributor
Joel B. 615
-------------------------------------------------------------------------------
			     If Only - The Kooks
-------------------------------------------------------------------------------

Tabbed By : Joel B. 

Tuning:Standard

A Nice song by The Kooks with a nice Bass line.
I hope I'd figure it out right. If not please comment and correct.
Much fun and please rate. :)


Intro:
G|-----------------|
D|-----------------|
A|-2-~----------2--|
E|-----------------|

Verse:
G|-----4-------------7-------9-6h7p6-------------|
D|---4---------4-------7-------------9-----------|
A|-2---------4---4/5-----5/7---------------------|x4
E|-------0h2-------------------------------------|

Chorus:                        
                      
                         
G|--11h12p11-------------------------|
D|-----------12-11h12p11-------------|
A|-----------------------12-10-------|
E|-----------------------------10----|

G|-11h12p11----11------|
D|----------12---------|
A|---------------------|
E|---------------------|

G|--11h12p11-------------------------|
D|-----------12-11h12p11-------------|
A|-----------------------12-10-------|
E|-----------------------------10----|

G|-11h12p11------------|
D|------------12~------|
A|---------------------|
E|---------------------|


Verse:
G|-----4-------------7-------9-6h7p6-------------|
D|---4---------4-------7-------------9-----------|
A|-2---------4---4/5-----5/7---------------------|x3
E|-------0h2-------------------------------------|

Chrous:
G|--11h12p11-------------------------|
D|-----------12-11h12p11-------------|
A|-----------------------12-10-------|
E|-----------------------------10----|

G|-11h12p11----11------|
D|----------12---------|
A|---------------------|
E|---------------------|

G|--11h12p11-------------------------|
D|-----------12-11h12p11-------------|
A|-----------------------12-10-------|
E|-----------------------------10----|

G|-11h12p11------------|
D|------------12~------|
A|---------------------|
E|---------------------|

Solo
G|-----4-----------7-----7/9--6h7p6----|
D|---4---------4-----7-----------------|
A|-2---------4---4-----5---------------|
E|-------0h2---------------------------|

G|-----------------7-----7/9--6h7p6----|
D|-9-----------4-----7---------------9\|
A|---9-------4---4-----5---------------|
E|-----7--0h2--------------------------|

Verse:
G|-----4-------------7-------9-6h7p6-------------|
D|---4---------4-------7-------------9-----------|
A|-2---------4---4/5-----5/7---------------------|x3
E|-------0h2-------------------------------------|

Chrous:  x2

G|--11h12p11-------------------------|
D|-----------12-11h12p11-------------|
A|-----------------------12-10-------|
E|-----------------------------10----|

G|-11h12p11----11------|
D|----------12---------|
A|---------------------|
E|---------------------|

G|--11h12p11-------------------------|
D|-----------12-11h12p11-------------|
A|-----------------------12-10-------|
E|-----------------------------10----|

G|-11h12p11------------|
D|------------12~------|
A|---------------------|
E|---------------------|



| /  slide up
| \  slide down
| h  hammer-on
| p  pull-off
| ~  vibrato
| +  harmonic
| x  Mute note



Questions?
E-mail: skaterknoedel@hotmail.de
===============================================================================
comments
We did not receive enough feedback on this tab! Please rate:
print report bad tab
1 2 3 4 5
1 comment total.
0 reply
The_alchemist 145 wrote on March 26 2010, 04:24 am

In the verse it should be
G|-4---------
D|---4-------
A|-----2-----
E|-----------

I want to post or [tab]
guest
You may want to rate the tab now too:
select rating
Please do not post tabs as comments. Select "correction" instead!