Oops, an error
Loading. Please wait.

Jackie Big Tits tab

version 2
version 2

Whole song

Interactive

214 views 3 this week
no commentswrite comment
1 2 3 4 5
3 more votes to show rating
add to favorites
×
Save as Personal and add changes to this tab that will be seen only by you. Learn more ›
×
You can save this tab as Personal to edit and correct it or add notes. All changes will be seen only by you. Learn more »
launch autoscroll
font size
0
reset
how to read this tab
guitar tuner
edit
Autoscroll
slow
fast
+/-
esc
set tempo
stop
Author
Difficulty
-------------------------------------------------------------------------------
                             Jackie Big Tits - The Kooks
-------------------------------------------------------------------------------

Tuning: Standard EAGDBe. Capo on Second: You can play all of it without the capo in the original key if you just
                                         shift everything up two frets


Luke only plays this intro in the acoustic versions:

e|----------------------------------------------------------------------------|
B|----------------------------------------------------------------------------|
G|9--9--9--9--9--9--9--9--9--9--9--9--9--9--9--9--9---------------------------|
D|----------------------------------------------------------------------------|
A|7--7--7--7--7--7--7--7--7--7--7--7--7--7--7--7--7---------------------------| 
E|---------------------------0--0--0--0--0--0--0--0---------------------------|


    E       E/D   C#m      B      A           B
e|--9--9----------4--4-x----------5--5-5-5-5--7--7-7--7-7----------------------------|
B|--9--9-9--------5--5-5-x----4-4-5--5-5-5-5--7--7-7--7-7----------------------------|
G|--9--9-9----11--6--6-6-x----4-4-6--6-6-6-6--8--8-8--8-8----------------------------|
D|--9--9-9----9---6--6-6-x----4-4-7--7-7-7-7--9--9-9--9-8----------------------------|
A|--7--7----6-----4--4-4-x---6----7--7-7-7-7--9--9-9--9-9----------------------------|
E|-------------------------7------5--5-5-5-4--7--7-7--7-7----------------------------|

This repeats throughout basically all of the song with minor variations.

When you go into the chorus just add another A chord and B chord before repeating the main riff. I can't be 
bothered to tab it out so just listen to the rhythm.

For the Bridge (The 'Jackie Big Tits' part) it's the same thing but switching between the A and B chords a 
couple of times before repeating the riff.



            
            
Suggest correction
Creating personal tab
Creating personal tab
You can edit any tab online and save it as your Personal.

You can edit, replace or remove any tab part or add personal notes – all changes will be seen only by you.

Personal tabs can be accessed anytime from any device, even offline.
Learn more »
Give kudos to tab author, rate the tab!
1 2 3 4 5
comments
print report bad tab
guest
You may want to rate the tab now too:
select rating
Wanna post a correction for this tab? Suggest correction