Oops, an error
Loading. Please wait.

Junk Of The Heart Happy Tab

version 1
version 1

Live

Interactive

16 views 3 this week
no commentswrite comment
1 2 3 4 5
3 more votes to show rating
add to favorites
launch autoscroll
font size
0
reset
how to read this tab
guitar tuner
Autoscroll
slow
fast
+/-
esc
set tempo
stop
Help us to improve Ultimate-Guitar.com Take our survey!
×
Author
Difficulty
novice
[Intro]

e|------------------------10-------10-9--------|
B|-7-7p5---7-5h7/10-10--------10--/10----------|
G|--------------------10-----------------------|
D|----------------------10---------------------|
A|---------------------------------------------|
E|---------------------------------------------|


[Verse]

e|-------------------~-------------------------|
B|---------------------------------------------|
G|---------------------------------------------|
D|---------------------------------------------|
A|-5v------------------------------------------|
E|----5v--3v--3v----1v--1v----6v-5v--5v--------|(x2)


[Pre-Chorus]

e|---------------------------------------------|
B|---------------------------------------------|
G|---------------------------------------------|
D|---------------------------------------------|
A|---------------------------------------------|
E|-1v-1v-1v/6v-6v-6h8--1v--1v-1v/6v-6v-6v-5v-5v|


[Chorus]

   Bm      F#m        G          F#m    
e|-7--------9--------10-----------9----------|
B|-7--------10-------12----------10----------|
G|-7--------11-------12----------11----------|
D|-9--------11-------12----------11----------|
A|-9--------9--------10----------9-----------|
E|-7-----------------------------------------|

   D       F#m        G          F#m
e|-10-------9--------10-----------9----------|
B|-10-------10-------12-----------11---------|
G|-11-------11-------12-----------11---------|
D|-12-------11-------12-----------11---------|
A|-12-------9--------10-----------9----------|
E|-10----------------------------------------|

     Em        A        D
e|---7---------5--------5--------------------|
B|---8---------5--------8--------------------|
G|---9---------6--------8--------------------|
D|---9---------7--------8--------------------|
A|---7---------6--------5--------------------|
E|-------------5-----------------------------|


[Verse]

 D              A6               G6
You seem to be sunk, life is no race
F6                            Bb6   A7
Well I'm not happy, I'm in disgrace
F6                          Bb6
So I spend time guessing on you, oh
F6                                            Bb6
You're a lover of the wild and a joker of the heart
A7
But are you mine?


[Chorus]

   Bm      F#m        G          F#m    
e|-7--------9--------10-----------9----------|
B|-7--------10-------12----------10----------|
G|-7--------11-------12----------11----------|
D|-9--------11-------12----------11----------|
A|-9--------9--------10----------9-----------|
E|-7-----------------------------------------|

   D       F#m        G          F#m
e|-10-------9--------10-----------9----------|
B|-10-------10-------12-----------11---------|
G|-11-------11-------12-----------11---------|
D|-12-------11-------12-----------11---------|
A|-12-------9--------10-----------9----------|
E|-10----------------------------------------|

     Em        A        D
e|---7---------5--------5--------------------|
B|---8---------5--------8--------------------|
G|---9---------6--------8--------------------|
D|---9---------7--------8--------------------|
A|---7---------6--------5--------------------|
E|-------------5-----------------------------|


[Solo]

  D                         F6
e|---10-10-10-10----------|---8-8-8-8----------|
b|---------------10-10-10-|-----------10-10-10-|
G|------------------------|--------------------|
D|------------------------|--------------------|
A|------------------------|--------------------|
E|------------------------|--------------------|


  Bb6                       A7
e|---10-10-10-10--------9-|---9-9-9~-----------|
b|---------------10-10----|--------------------|
G|------------------------|--------------------|
D|------------------------|--------------------|
A|------------------------|--------------------|
E|------------------------|--------------------|

  D                         F6
e|---10-10-10-10----------|---8-8-8-8----------|
b|---------------10-10-10-|-----------10-10-10-|
G|------------------------|--------------------|
D|------------------------|--------------------|
A|------------------------|--------------------|
E|------------------------|--------------------|

  Bb6                       A7
e|---10-10-10-10--------9-|---9-9-9~-----------|
b|---------------10-10----|--------------------|
G|------------------------|--------------------|
D|------------------------|--------------------|
A|------------------------|--------------------|
E|------------------------|--------------------|


[Post-Solo]

e|----------------------------------------------------------|
B|----------------------------------------------------------|
G|----------------------------------------------------------|
D|----------------------------------------------------------|
A|----------------------------------------------------------|
E|-1-1-1-1-1-1-1--6-6-6-6-6h8--1-1-1-1-1-1-1-6-6-6-6-5-5-5-5|


[Chorus]

e|-12b14--12b14-12b14--14b16--12b14------------|
B|---------------------------------------------|
G|---------------------------------------------|
D|---------------------------------------------|
A|---------------------------------------------|
E|---------------------------------------------|

   D       F#m        G          F#m
e|-10-------9--------10-----------9----------|
B|-10-------10-------12-----------11---------|
G|-11-------11-------12-----------11---------|
D|-12-------11-------12-----------11---------|
A|-12-------9--------10-----------9----------|
E|-10----------------------------------------|

   Em        A        D
e|-12--------9--------14-----------------------|
B|-12--------10-------15-----------------------|
G|-12--------9--------14-----------------------|
D|---------------------------------------------|
A|---------------------------------------------|
E|---------------------------------------------|



************************************

| h  Hammer-on
| p  Pull-off
| b  Bend
| /  Slide up
| ~  Vibrato
| v  ?

************************************
Suggest correction
Give kudos to tab author, rate the tab!
1 2 3 4 5
comments
print report bad tab
guest
You may want to rate the tab now too:
select rating
Wanna post a correction for this tab? Suggest correction