Oops, an error
Loading. Please wait.

Kids tab

version 1
version 1

Whole song

141,212 views 36 this week
8 commentsread comments
1 2 3 4 5
x 23
add to favorites
×
Save as Personal and add changes to this tab that will be seen only by you. Learn more ›
×
You can save this tab as Personal to edit and correct it or add notes. All changes will be seen only by you. Learn more »
launch autoscroll
font size
0
reset
how to read this tab
guitar tuner
edit
Autoscroll
slow
fast
+/-
esc
set tempo
stop
Author
Unregistered
[Chords]
   F#m  D   A   E
e|--2---2---5---4---|
H|--2---3---5---5---|
G|--2---2---6---4---|
D|--4---0---7---6---|
A|--4-------7---7---|
E|--2-------5---4---|

[Intro]
e|---------------2--4-2--------------5--7--9--------9--7--10--9-7---5-------|
H|---------2--5----------5----------5---------------------------------------|
G|---2--4--------------------------6----------------------------------------|
D|--------------------------------7-----------------------------------------|
A|--------------------------------------------------------------------------|
E|--------------------------------------------------------------------------|

e|-------------------------5-----5------------------------------------------|
H|--5-5s7---9--7----5--------6----------------------------------------------|
G|-----------------------------6-----------6-6-6---6-6-6---4--4--2----------|
D|--------------------------------------------------------------------------|
A|--------------------------------------------------------------------------|
E|--------------------------------------------------------------------------|

[Verse]
F#m          D
You were a child
                 A               E
Crawling on your knees toward him
F#m                D
  Making mamma so proud
A                         E
But your voice is too loud
F#m                D            A  E
  We like to watch you laughing
F#m                  D
Picking insects of plants
A                           E
  No time to think of consequences
Suggest correction
Creating personal tab
Creating personal tab
You can edit any tab online and save it as your Personal.

You can edit, replace or remove any tab part or add personal notes – all changes will be seen only by you.

Personal tabs can be accessed anytime from any device, even offline.
Learn more »
comments
print report bad tab
8 comments total. Showing first comments.
0 reply
adamadamadam 51 Jun 07, 2009 12:01 PM

nice! cant wait for solo =)

0 reply
James.Fox 10 Jul 17, 2009 03:44 AM

great tab, well done, but do the rest!!

-1 reply
Pritchard Fan 60 Sep 15, 2009 03:47 AM

Hey, just a quick correction, the E chord is wrong. the chord played instead of it is A/G#.

e--------
b-1------
g-2------
d-3------
a--------
E--4-----

Sorry if that's tabbed out poorly. iv not submitted any tabs. try that chord and let me know what you think to the sound :)

Other than that, its a perfect tab mate!

guest
Wanna post a correction for this tab? Suggest correction