Oops, an error
Loading. Please wait.

Matchbox bass

version 3
version 3

Whole song

Interactive

4,918 views 18 this week
3 commentsread comments
1 2 3 4 5
x 7
add to favorites
×
Save as Personal and add changes to this tab that will be seen only by you. Learn more ›
×
You can save this tab as Personal to edit and correct it or add notes. All changes will be seen only by you. Learn more »
launch autoscroll
font size
0
reset
guitar tuner
edit
Autoscroll
slow
fast
+/-
esc
set tempo
stop
Author
Difficulty
Completely copied from SurferWoz. Just that this one has the strings fixed so you don't 
to work your brain so far. Also, some repeated parts have been taken out. Big thanks to 
SurferWoz for tabbing it out though.

-INTRO-

G|--------------------------------------------------------------------------------|
D|-----------------------------13--------------13--16-15-13-------16-15-13--------|
A|--------------------------------13r----\-------------------------------------13\|
E|-----------14\6/11r-------------------------------------------------------11----|

G|--------------------------------------------------------------------------------|
D|--------------------------------------------------------------------------------|
A|----------13------------9-----------------------8------------11-----------------|
E|11-11-h14-------7-7-10h------------------6-6-h9------9-9-h12--------------------|

-VERSE-

"Viciously she sleeps..."
G|--------------------------------------------------------------------------------|
D|--------------------------------------------------------------------------------|
A|----------13------------9--11/13\---------------8-------------11-11/13----------|
E|11-11-h14-------7-7-10h------------------6-6-h9------9-9-h12--------------------|

"She trips, falls into it all..."
G|--------------------------------------------------------------------------------|
D|--------------------------------------------------------------11----------------|
A|----------13------------9--11/13\---------------8----------------11/13----------|
E|11-11-h14-------7-7-10h------------------6-6-h9------9-9-h12--------------------|

"And I wish i'd bite my lip..."
G|--------------------------------------------------------------------------------|
D|--------------------------------------------------------------------------------|
A|----------13------------9--11/13\---------------8-------------11/13-------------|
E|11-11-h14-------7-7-10h------------------6-6-h9------9-9-h12--------------------|

G|--------------------------------------------------------------------------------|
D|--------------------------------------------------------------------------------|
A|----------13------------9--11/13\---------------8------------11r----------------|
E|11-11-h14-------7-7-10h------------------6-6-h9------9-9-h12--------------------|

-PRE-CHORUS-

"Don't You think that you went to far..."
G|--------------------------------------------------------------------------------|
D|--------------------------------------------------------------------------------|
A|--------------------------------------------------------------------------------|
E|11r-----------------------------------------------------------------------------|

"For you, you and him..."
G|--------------------------------------------------------------------------------|
D|--------------------------------------------------------------------------------|
A|--------------------------------------------------------------------------------|
E|11r-----------------------------------------------------------------------------|

-CHORUS-

"All of us.."
G|-----------------------------------------------------------------------------------------------|
D|-----------------------------------------------------------------------------------------------|
A|------------------------------------------------11-11-11-11-11-11-11-11------------------------|
E|11-11-11-11-11-11-11-11-14-14-14-14-14-14-14-14-------------------------14-14-14-14-13-13-13-13|

G|-----------------------------------------------------------------------------------------------|
D|-----------------------------------------------------------------------------------------------|
A|------------------------------------------------11-----11-11-11-------13----------13-----------|
E|11-------11-11-11-------14------14-14-14--------------------------------14----------13---------|

-BRIDGE-

"I'm sorry..."
G|--------------------------------------------------------------------------------------|
D|--------------------------------18-------------------------------------------18-------|
A|----------16-----------16-16-16----16-16---------------16-----------16-16-16----16-16-|
E|14--14-14----14-14-14------------------------14--14-14----14-14-14--------------------|

"I always seem to play..."
G|-----------18----------=-----------------18-----------|
D|--------------18----------------------------18--------|
A|-----------------16---------------16-----------16-----|
E|14--14r-----------------14--14-14----14---------------|

-CHORUS-

"All of us.."
G|-----------------------------------------------------------------------------------------------|
D|-----------------------------------------------------------------------------------------------|
A|------------------------------------------------11-11-11-11-11-11-11-11------------------------|
E|11-11-11-11-11-11-11-11-14-14-14-14-14-14-14-14-------------------------14-14-14-14-13-13-13-13|

G|-----------------------------------------------------------------------------------------------|
D|-----------------------------------------------------------------------------------------------|
A|------------------------------------------------11-----11-11-11-------13----------13-----------|
E|11-------11-11-11-------14------14-14-14--------------------------------14----------13---------|

-OUTRO-

"..skies."
G|--------------------------------------------------------------------------------|
D|--------------------------------------------------------------------------------|
A|-13-13-13\---------13\--------------16----16------------------------------------|
E|----------------11---------14--14------14----14/-\------------------------------|

G|--------------------------------------------------------------------------------|
D|--------------------------------------------------------------------------------|
A|------------------13------------------------16-16------------13-13--------------|
E|-11-11---11-11-11----11-11-----11-11----14--------14-----11--------11-----------|

"Oh, oh my Julia..."
G|--------------------------------------------------------------------------------|
D|--------------------------------------------------------------------------------|
A|---------13-13-13----13-13---------------------16-----16--16-16-----------------|
E|-11--11-----------11-------11----------14--14-----14------------14--------------|

G|--------------------------------------------------------------------------------|
D|--------------------------------------------------------------------------------|
A|----------13---------13\-----------------------16-----16--16-16-16--------------|
E|-11-11-11------11-11------11-11-----14-14-14-14----14---------------14----------|

"Oh, oh my Julia..."
G|--------------------------------------------------------------------------------|
D|--------------------------------------------------------------------------------|
A|--------------------------13-----------------------------16-----16/-------------|
E|-11-11--0-11--11-11-11-11----11------14--14--14-14-14-14----14------------------|

"I'll never betray you..."
G|--------------------------------------------------------------------------------|
D|--------------------------------------------------------------------------------|
A|--------------------13----13\------------------------------16-----16/-----------|
E|-11-11--11-11-11-11----11-------------14--14--14-14-14-14-----14----------------|

"Woooahhh...."
G|--------------------------------------------------------------------------------|
D|--------------------------------------------------------------------------------|
A|------------13-13--------13\--------13\-------------------------16-16-----16----|
E|-11-11---11--------11-11------11-11----------14-14-14--14-14-14--------14----14-|

G|--------------------------------------------------------------------------------|
D|--------------------------------------------------------------------------------|
A|--------------------13----13-13-------------------------------------16----------|
E|-11-11--11-11-11-11----11-------11----------14-14-14---14-14-14-14------14--14--|

G|--------------------------------------------------------------------------------|
D|--------------------------------------------------------------------------------|
A|--------13---------------13-------------------------16---------------16---------|
E|-11-11-----11-11---11-11----11-11------------14-14-----14-14---14-14----14-14---|

G|--------------------------------------------------------------------------------|
D|--------------------------------------------------------------------------------|
A|------------------13----13------------------------------------16----16----------|
E|-11-11--11-11-11-----11----11-11-------------14-14--14-14-14-----14----14-14--11|

            
            
Suggest correction
Creating personal tab
Creating personal tab
You can edit any tab online and save it as your Personal.

You can edit, replace or remove any tab part or add personal notes – all changes will be seen only by you.

Personal tabs can be accessed anytime from any device, even offline.
Learn more »
comments
print report bad tab
3 comments total.
0 reply
samueliamuel121 31 Sep 06, 2016 04:27 AM

What does the 'r' mean?

guest
You may want to rate the tab now too:
select rating
Wanna post a correction for this tab? Suggest correction