Oops, an error
Loading. Please wait.

Mr Maker bass

version 1
version 1

Whole song

Interactive

6,714 views 3 this week
1 commentread comment
1 2 3 4 5
x 3
add to favorites
×
Save as Personal and add changes to this tab that will be seen only by you. Learn more ›
×
You can save this tab as Personal to edit and correct it or add notes. All changes will be seen only by you. Learn more »
launch autoscroll
font size
0
reset
guitar tuner
edit
Autoscroll
slow
fast
+/-
esc
set tempo
stop
Author
Difficulty
Intro
G|----------------------------------------------------------------------|
D|----------------------------------------------------------------------|
A|-----------5-55--------------------------5-55-------------------------|
E|3-5-3-2-0------5-7-777-5-555--3-5-3-2-0------5-7-777-5-555--3-5-3-2-0-|

Verse
G|---------------------------|
D|---------------------------|
A|5-555----------------------|
E|------7-777-5-555-3-5-3-2-0|Play however many times is needed


Pre-Chorus
G|-----------|
D|-----------|
A|3-333-3-333|
E|-----------|

Chorus
G|-----------------------------------------------------------|
D|-----------------------------------------------------------|
A|-----------------------------------------------------------|
E|3-333-5-555-10-9-77-77-3-333-5-555-10-9-77-77-00-0-0-0-55-5|

Order
Intro
Verse
Pre-Chorus
Chorus
Intro
Verse
Pre-Chorus
Chorus
2.01 to 2.13 no bass
Verse
Chorus

Wait while guitar plays then finish off with
G|-----------|
D|-----------|
A|----------5|
E|3-5-3-2-0--|
Suggest correction
Creating personal tab
Creating personal tab
You can edit any tab online and save it as your Personal.

You can edit, replace or remove any tab part or add personal notes – all changes will be seen only by you.

Personal tabs can be accessed anytime from any device, even offline.
Learn more »
Give kudos to tab author, rate the tab!
1 2 3 4 5
comments
print report bad tab
1 comment total.
0 reply
usmur 55 Nov 25, 2014 06:42 AM

Lack of accuracy. well man it's not quite right, i'm doing another version based on yours. Anyway, thanx, I'm gonna write in my tab, that it is based on yours

guest
You may want to rate the tab now too:
select rating
Wanna post a correction for this tab? Suggest correction