Oops, an error
Loading. Please wait.

Mr Maker Tab

version 2
version 2

Whole song

Interactive

424 views 1 this week
no commentswrite comment
1 2 3 4 5
please rate
add to favorites
launch autoscroll
font size
0
reset
how to read this tab
guitar tuner
Autoscroll
slow
fast
+/-
esc
set tempo
stop
Help us to improve Ultimate-Guitar.com Take our survey!
×
Author
This tab is based on an acoustic performance by Luke Pritchard, you could watch it on 
youtube: http://www.youtube.com/watch?v=UqahD6JZ7hw

This is my first tab ever so please feel free to post comments or corrections about it.
_____________________________________________________________________________
Intro
                  [D]       [Bm]     [F#m]
e-------------|-2-2-x-2---2-2-x-2---2-2-x-2--|      -------------|
B-------------|-3-3-x-3---3-3-x-3---2-2-x-2--|      -------------|
G-------------|-2-2-x-2---4-4-x-4---2-2-x-2--|      -------------|
D-------------|-----------4-4-x-4---4-4-x-4--| x2   -------------|
A--0----------|-----------2-2-x-2---4-4-x-4--|      --0----------|
E----3--2--0--|-----------2-2-x-2---2-2-x-2--|      ----3--2--0--|


Verse 1

        Mr.Maker he's got it made, a beautiful wife and a baby on the..
e--2-2-x-2-------------2--2-x-2-------2--2-x--2--|--------------------|
B--3-3-x-3-------------3--3-x-3-------2--2-x--2--|--------------------|
G--2-2-x-2-------------4--4-x-4-------2--2-x--2--|--------------------|
D----------------------4--4-x-4-------4--4-x--4--|--------------------| x4
A----------------------2--2-x-2-------4--4-x--4--|--------0-----------|
E----------------------2--2-x-2-------2--2-x--2--|-----------3--2--0--|


Chorus
(Strumming Pattern)
   D D U U D   D D U U D   But oh no, it's alright    Mr.Maker, he'll..
e--2-2-2-2-2-x-2-2-2-2-2-x-|-----------------------------2-2-2-x--|
B--3-3-3-3-3-x-3-3-3-3-3-x-|-----------------2-2-2-------3-3-3-x--|
G--4-4-4-4-4-x-4-4-4-4-4-x-|-------1-1-1-----2-2-2-------2-2-2-x--|
D--4-4-4-4-4-x-4-4-4-4-4-x-|-------2-2-2-----2-2-2-------------x--|
A--2-2-2-2-2-x-2-2-2-2-2-x-|-------2-2-2-----0-0-0-----------4-x--|
E--2-2-2-2-2-x-2-2-2-2-2-x-|-------0-0-0-----------------------x--|

..be fine                       Oh yeeaah..Oh yeeeeaaahh
e----2-2-x-2-2-x--|           ---0-0-0-0------------------|
B----3-3-x-3-3-x--|(Repeat    ---0-0-0-0-----2-2-2222222--|
G----4-4-x-4-4-x--| that      ---2-2-2-2-----2-2-0000000--|
D----4-4-x-4-4-x--|section)   ---2-2-2-2-----2-2-2222222--|
A----2-2-x-2-2-x--|           ---1-1-1-1----0-0--0000000--|
E----2-2-x-2-2-x--|           --0-0-0-0-------------------|


Repeat the Intro:
    [D]       [Bm]     [F#m]
e-2-2-x-2---2-2-x-2---2-2-x-2---------------|
B-3-3-x-3---3-3-x-3---2-2-x-2---------------|
G-2-2-x-2---4-4-x-4---2-2-x-2---------------|
D-----------4-4-x-4---4-4-x-4---------------| x2
A-----------2-2-x-2---4-4-x-4----0----------|
E-----------2-2-x-2---2-2-x-2------3--2--0--|


Verse 2: (just the same as the 1st Verse)

     Doesn't stop to think............
e--2-2-x-2---------------2--2-x-2-------2--2-x--2--|--------------------|
B--3-3-x-3---------------3--3-x-3-------2--2-x--2--|--------------------|
G--2-2-x-2---------------4--4-x-4-------2--2-x--2--|--------------------|
D------------------------4--4-x-4-------4--4-x--4--|--------------------| x4
A------------------------2--2-x-2-------4--4-x--4--|--------0-----------|
E------------------------2--2-x-2-------2--2-x--2--|-----------3--2--0--|


Repeat Chorus:
(Strumming Pattern)
   D D U U D   D D U U D   But oh no, it's alright    Mr.Maker, he'll..
e--2-2-2-2-2-x-2-2-2-2-2-x-|-----------------------------2-2-2-x--|
B--3-3-3-3-3-x-3-3-3-3-3-x-|-----------------2-2-2-------3-3-3-x--|
G--4-4-4-4-4-x-4-4-4-4-4-x-|-------1-1-1-----2-2-2-------2-2-2-x--|
D--4-4-4-4-4-x-4-4-4-4-4-x-|-------2-2-2-----2-2-2-------------x--|
A--2-2-2-2-2-x-2-2-2-2-2-x-|-------2-2-2-----0-0-0-----------4-x--|
E--2-2-2-2-2-x-2-2-2-2-2-x-|-------0-0-0-----------------------x--|

..be fine                       Oh yeeaah..Oh yeeeeaaahh
e----2-2-x-2-2-x--|           ---0-0-0-0------------------|
B----3-3-x-3-3-x--|(Repeat    ---0-0-0-0-----2-2----------|
G----4-4-x-4-4-x--| that      ---2-2-2-2-----2-2----------|
D----4-4-x-4-4-x--|section)   ---2-2-2-2-----2-2----------|
A----2-2-x-2-2-x--|           ---1-1-1-1----0-0-----------|
E----2-2-x-2-2-x--|           --0-0-0-0-------------------|


Bridge:
(light strumming)          (regular/heavy strumming)
  Heart beat, stay heavy...Love us all please, stay on your feet
e--3--3--3--3--3--3--3--3---3--3--3--3--3--3---3--3--3--3--3--3--|
B--1--1--1--1--0--0--0--0---1--1--1--1--1--1---0--0--0--0--0--0--|
G--0--0--0--0--2--2--2--2---0--0--0--0--0--0---2--2--2--2--2--2--|
D--2--2--2--2--0--0--0--0---0--0--0--0--0--0---0--0--0--0--0--0--|
A--3--3--3--3--2--2--2--2---2--2--2--2--2--2---2--2--2--2--2--2--|
E--0--0--0--0--0--0--0--0---3--3--3--3--3--3---0--0--0--0--0--0--|

  for me......
e-----2-2-x-2---2-2-x-2---2-2-x-2---------------|
B-----3-3-x-3---3-3-x-3---2-2-x-2---------------|
G-----2-2-x-2---4-4-x-4---2-2-x-2---------------|
D---------------4-4-x-4---4-4-x-4---------------| x2
A---------------2-2-x-2---4-4-x-4----0----------|
E---------------2-2-x-2---2-2-x-2------3--2--0--|


Repeat Chorus:
(Strumming Pattern)
   D D U U D   D D U U D   But oh no, it's alright    Mr.Maker, he'll..
e--2-2-2-2-2-x-2-2-2-2-2-x-|-----------------------------2-2-2-x--|
B--3-3-3-3-3-x-3-3-3-3-3-x-|-----------------2-2-2-------3-3-3-x--|
G--4-4-4-4-4-x-4-4-4-4-4-x-|-------1-1-1-----2-2-2-------2-2-2-x--|
D--4-4-4-4-4-x-4-4-4-4-4-x-|-------2-2-2-----2-2-2-------------x--|
A--2-2-2-2-2-x-2-2-2-2-2-x-|-------2-2-2-----0-0-0-----------4-x--|
E--2-2-2-2-2-x-2-2-2-2-2-x-|-------0-0-0-----------------------x--|

..be fine                       Oh yeeaah..Oh yeeeeaaahh
e----2-2-x-2-2-x--|           ---0-0-0-0------------------|
B----3-3-x-3-3-x--|(Repeat    ---0-0-0-0-----2-2-2222222--|
G----4-4-x-4-4-x--| that      ---2-2-2-2-----2-2-0000000--|
D----4-4-x-4-4-x--|section)   ---2-2-2-2-----2-2-2222222--|
A----2-2-x-2-2-x--|           ---1-1-1-1----0-0--0000000--|
E----2-2-x-2-2-x--|           --0-0-0-0-------------------|


Ending: (almost the same as intro)
    [D]       [Bm]     [F#m]               [D]
e-2-2-x-2---2-2-x-2---2-2-x-2---------------2-|
B-3-3-x-3---3-3-x-3---2-2-x-2---------------3-|
G-2-2-x-2---4-4-x-4---2-2-x-2---------------2-|
D-----------4-4-x-4---4-4-x-4-----------------|
A-----------2-2-x-2---4-4-x-4----0------------|
E-----------2-2-x-2---2-2-x-2------3--2--0----|
Suggest correction
Give kudos to tab author, rate the tab!
1 2 3 4 5
comments
print report bad tab
guest
You may want to rate the tab now too:
select rating
Wanna post a correction for this tab? Suggest correction