Oops, an error
Loading. Please wait.
We have an official Naive tab made by UG professional guitarists. Check out the tab »
×

Naive bass

version 1
version 1

Whole song

Interactive

47,123 views 21 this week
8 commentsread comments
1 2 3 4 5
x 20
add to favorites
×
Save as Personal and add changes to this tab that will be seen only by you. Learn more ›
×
You can save this tab as Personal to edit and correct it or add notes. All changes will be seen only by you. Learn more »
launch autoscroll
font size
0
reset
guitar tuner
backing track
0:00
0:00
edit
Autoscroll
slow
fast
+/-
esc
set tempo
stop
Author
Difficulty
Naive - The Kooks
Bass Tab

This is my first Bass Tab...im wel proud of it lol

Bass comes in bout 18 secondz

Start Bit
|-------------------------------------------|
|-------------------------------------------|
|--11------slide down to--------4-----------|
|---------------------------------------4---|

Verse
|---------------------------------|
|---------------------------------|
|--------------------2------------|
|--4----0----2---------2--4-------|  

Chorus
|----------------|----------------|--------------|---------------|---------|
|----------------|----------------|--------------|---------------|---------|
|------2---------|------2---------|--------------|---------2 ----|---------|
|--0---------2---|--0---------2---|--0----4---2--|--0--------2---|---0-----|

Middle Bit 
|-----------------------------------|
|-----------------------------------|
|-----------------------------------|
|--11------slide down to--------4---|

Guitar Bit

|--------------------------------------------------|
|--------------------------------------------------|
|--------------------------------------------------|
|--0----2(slide up)----4-4(slide up)------------7--| 


End Bit
|--------------------|
|--------------------|
|----------------2---|
|--0---2---4---------|

Start Bit x 1
Verse x 2
Chorus x 1
Verse x 3
Chorus x 1
Middle Bit x 1
Verse x 2
Chorus x 1
End Bit x 8

If you liked my Tab plz Email me :) hallenguitarmaster@hotmail.com

            
            
Suggest correction
Creating personal tab
Creating personal tab
You can edit any tab online and save it as your Personal.

You can edit, replace or remove any tab part or add personal notes – all changes will be seen only by you.

Personal tabs can be accessed anytime from any device, even offline.
Learn more »
comments
print report bad tab
8 comments total. Showing first comments.
0 reply
McKillswitch 20 Apr 19, 2006 11:41 AM

1st comment YAY!

0 reply
jonnysumner 142 Apr 29, 2006 02:16 AM

timing is everywhere m8! not 2b proud of!

0 reply
Ginga91 31 May 25, 2006 11:27 AM

this is a joke

guest
You may want to rate the tab now too:
select rating
Wanna post a correction for this tab? Suggest correction