Oops, an error
Loading. Please wait.
We have an official Naive tab made by UG professional guitarists. Check out the tab »
×

Naive bass

version 4
version 4

Whole song

Interactive

124 views 12 this week
no commentswrite comment
1 2 3 4 5
3 more votes to show rating
add to favorites
×
Save as Personal and add changes to this tab that will be seen only by you. Learn more ›
×
You can save this tab as Personal to edit and correct it or add notes. All changes will be seen only by you. Learn more »
launch autoscroll
font size
0
reset
guitar tuner
backing track
0:00
0:00
edit
Autoscroll
slow
fast
+/-
esc
set tempo
stop
About this tab version
Love this please Worked hard Love guitar:) This tab is completly accurate and amazing.This is one of many tabs I've done. Enjoy.. Was this info helpful? Yes No
Naive the kooks bass tab ( whole song) Enjoy!!
wait till lead singer finishes first line(I'm not sayin it was your fault all though you 
could have done more
your so naive yet so)

G|---------------------------------------|
D|---------------------------------------|
A|--------------77---------2------1------|   x2
E|--20/---44----------22------4-------4--|

(I know she knows I'm not fond of asking)
G|---------------------------------------|
D|---------6---------6-------6------6----|
A|----7-6------7-6------7-6----7-6-------|
E|---------------------------------------|

[Chorus]
G|------------------------------------------------|
D|------------------------------------------------|
A|--------------77-77-7----------2------1---------|   x3
E|--20/---44-44-4--------22-22-2-------4-------4--|

(I know she knows I'm not fond of asking)
G|---------------------------------------|
D|---------6---------6-------6------6----|
A|----7-6------7-6------7-6----7-6-------|
E|---------------------------------------|

[Bridge
]
G|-------------------------------------|
D|-------------------------------------|
A|-------------------------------------|
E|--2/20------20/2---------------------|

[Start right when he starts singing
]
G|------------------------------------------------|
D|------------------------------------------------|
A|--------------77-77-7----------2------1---------|   x2
E|--20/---44-44-4--------22-22-2-------4-------4--|

G|---------------------------------------|
D|---------6---------6-------6------6----|
A|----7-6------7-6------7-6----7-6-------|
E|---------------------------------------|

[Outro
]
G|----------------------------------------------|
D|----------------------------------------------|
A|------7777--666-------------------------------|   x7
E|-----------------44------7777-----------------|

            
            
Suggest correction
Creating personal tab
Creating personal tab
You can edit any tab online and save it as your Personal.

You can edit, replace or remove any tab part or add personal notes – all changes will be seen only by you.

Personal tabs can be accessed anytime from any device, even offline.
Learn more »
Give kudos to tab author, rate the tab!
1 2 3 4 5
comments
print report bad tab
guest
You may want to rate the tab now too:
select rating
Wanna post a correction for this tab? Suggest correction