Oops, an error
Loading. Please wait.
We have an official Naive tab made by UG professional guitarists. Check out the tab »
×
14,688 views 3 this week
9 commentsread comments
1 2 3 4 5
x 3
add to favorites
×
Save as Personal and add changes to this tab that will be seen only by you. Learn more ›
×
You can save this tab as Personal to edit and correct it or add notes. All changes will be seen only by you. Learn more »
launch autoscroll
font size
0
reset
how to read this tab
guitar tuner
backing track
0:00
0:00
edit
Autoscroll
slow
fast
+/-
esc
set tempo
stop
Author
Difficulty
Naive 
                                                      tabbed by mrsensible
Capo at 4th fret

Ill tab it in normal pitch (without the capo)

Chords:

E7sus4:010100
Em7:010000
C:x32010
C6:X32210
D/Fsharp:2x023x
G5/F sharp:2x00xx
G:3x0003
D7:x545xx
C*:3555x
D/F sharp*:25423x
D7*:xx0212
Cadd9:x32030
G5:3X0033
Csus2:x32033
Em:022000
D:xx0232
Cmaj7:xx5557
Bm:x24434
G*:355433

E7sus4                 Em7       C           C6             C

e|-----------------------------|-----0---x-x-0-----0---0--0----x--0-|
B|-----------------------------|-----1---x-x-1-----1---1--1----x--1-|
G|----2---x-x-2---2--2-2h0--x-x|-0---0---x-x-2-----2---2--2h0--x--0-|
D|----0---x-x-0---0--0-0----x-x|-2----------------------------------|
A|-2--2----------------2----x-x|-3----------------------------------|
E|-0---------------------------|------------------------------------|

D/Fsharp                   G5/Fsharp   G               D7

e|------------------------------------|------3--x-x-x-----------------------|
B|------------------------------------|------0--x-x-x-----------------------|
G|-------2-----2----2---2--2h0-----0--|-0----0--x-x-x--5-----4----5-x-x-x-x-|
D|-------0-----0----0---0--0-------0--|-0--------------4-----4----4-x-x-x-x-|
A|-------------------------x----------|-x--------------5-----5----5-x-x-x-x-|
E|-1h2---------------------2----2-----|-3-----------------------------------|

verse
im not saying.....

E7sus4                 Em7      C*                                     D/Fsharp*

e|-----------------------------|-------------------------------------|---------------------------------|
B|-----------------------------|-----5------5----5-------5--x-x-x-x--|-3---3--x-x-x-3----3--3-x-x--x-x-|
G|----2---x-x-2---2--2-2h0--x-x|-5---5------5----5-------5--x-x-x-x--|-2---2--x-x-x-2----2--2-x-x--x-x-|
D|----0---x-x-0---0--0-0----x-x|-5----------5----5-------5--x-x-x-x--|-4---4--x-x-x-4----4--4-x-x--x-x-|
A|-2--2----------------2----x-x|-3----------3----3-------3--x-x-x-x--|-5---5--x-x-x-5----5--5-x-x--x-x-|
E|-0---------------------------|-------------------------------------|-2---2--x-x-x-2----2--2-x-x--x-x-|

G                  D7*

e|-3-----3--x-x-x--2-----2---2--x-x-x-x-|
B|-0-----0--x-x-x--1-----1---1--x-x-x-x-|
G|-0-----0--x-x-x--2-----2---2--x-x-x-x-|
D|-0-----0--x-x-x--0-----0---0--x-x-x-x-|
A|-X-----x--x-x-x-----------------------|
E|-3-----3--x-x-x-----------------------|

The figure then carries on through the verse

Chorus

Cadd9                 G             D/Fsharp       Cadd9                       G5               D/Fsharp

     I know she  knows  that i'm not fond of asking.     True or false it maybe  but she's still out 
          Csus2                    Em         D                  Cadd9                      G5

to get me.     And i know she knows   that im not fond of asking.     True or false it maybe but she's

      D/Fsharp       Cadd9
still out to get me

G              D7                 E7sus4             Em7     C*

e|-3---3-x-x-x-------------------|--------------------------|-----------------------------|
B|-0---0-x-x-x-------------------|--------------------------|----5-------5---5--5-X-X-X-X-|
G|-0---0-x-x-x-5---5--5--x-x-x-x-|----2---X-2---2--2-2h0x-x-|-5--5-------5---5--5-X-X-X-X-|
D|-0---0-x-x-x-4---4--4--x-x-x-x-|----0---X-0---0--0-0--x-x-|-5----------5---5--5-X-X-X-X-|
A|-x---x-x-x-x-5---5--5--x-x-x-x-|-2--2--------------2--x-x-|-3----------3---3--3-X-X-X-X-|
E|-3---3-x-x-x-------------------|-0------------------------|-----------------------------|

D/Fsharp*                                       G                 D7

e|--------------------------------------------|-3-----3--x--x--x-------------------------|
B|-3----3--X--X--X--3-----3---3--X--X----X--X-|-0-----0--x--x--x-------------------------|
G|-2----2--X--X--X--2-----2---2--X--X----X--X-|-0-----0--x--x--x--5-----5--5-----5-----X-|
D|-4----4--X--X--X--4-----4---4--X--X----X--X-|-0-----0--x--x--x--4-----4--4-----4-----X-|
A|-5----5--X--X--X--5-----5---5--X--X----X--X-|-x-----x--x--x--x--5-----5--5-----5-----X-|
E|-2----2--X--X--X--2-----2---2--X--X----X--X-|-3-----3--x--x--x-------------------------|

repeat through verse 
then repeat chorus but it changes to this

G5                D/Fsharp

   but shes still out to get me.

Bridge

Em

e|---------------------------|----------------------------------|-3-3---3--3----3--3-3-3-3-3--|
B|---------------------------|----------------------------------|-3-3---3--3----3--3-3-3-3-3--|
G|-0---0--0-0-0/2-2-2---2--2-|-2/4-4-4-4--4-4-4/5-5-5----5-5-5--|-5-5---5--5----5--5-5-5-5-5--|
D|-2---2--2-2-2/4-4-4---4--4-|-4/5-5-5-5--5-5-5/7-7-7----7-7-7--|-5-5---5--5----5--5-5-5-5-5--|
A|---------------------------|----------------------------------|-----------------------------|
E|---------------------------|----------------------------------|-----------------------------|

Cmaj7            Em

e|-7-----------|----------------------------------|------------------------------------------|
B|-5-----------|-15----15---15-----13----------14-|----12-------12--------13-----13----------|
G|-5-----------|-16----16----------------14----13-|--------12------12h14--------------14--14-|
D|-5-----------|----------------------------------|------------------------------------------|
A|-------------|----------------------------------|------------------------------------------|
E|-------------|----------------------------------|------------------------------------------|

e|------------------------------------------|----------------------------------|
B|--------------13-------------13--13---13--|-3---3-----3------3--------1----1-|
G|-11------------------11------11--11---11--|-4---4-----4------4--------2----2-|
D|-----12-----------------12---12--12---12--|----------------------------------|
A|------------------------------------------|----------------------------------|
E|------------------------------------------|----------------------------------|

coda
 
G5               D/Fsharp       C*      Bm         Em              G*

  but shes still out to get me.                       Just dont let me down

C*       Bm       Em              G                C*       Bm
               
                     Just dont let me down.   Hold     on to your kite 

Em              G*        C*   Bm    Em              G*         Em
 
   Just dont let me down.               Just dont let me down.     Just dont let me down.

            
            
Suggest correction
Creating personal tab
Creating personal tab
You can edit any tab online and save it as your Personal.

You can edit, replace or remove any tab part or add personal notes – all changes will be seen only by you.

Personal tabs can be accessed anytime from any device, even offline.
Learn more »
Give kudos to tab author, rate the tab!
1 2 3 4 5
comments
print report bad tab
9 comments total. Showing first comments.
0 reply
CrazyYaz 725 Jun 05, 2007 03:02 AM

its quite thorough, haven't played it yet, but why do ppl insist its played on capo 4th?

0 reply
sam allen rules 206 Jun 05, 2007 07:51 AM

this is pretty much the book version isn't it?

0 reply
CrazyYaz 725 Jun 06, 2007 01:59 AM

yeh the book version has it like this, they wrote that ages ago. they dont even use capo anymore

guest
You may want to rate the tab now too:
select rating
Wanna post a correction for this tab? Suggest correction