Oops, an error
Loading. Please wait.
We have an official Seaside tab made by UG professional guitarists. Check out the tab »
×
60,780 views 114 this week
4 commentsread comments
1 2 3 4 5
x 9
add to favorites
×
Save as Personal and add changes to this tab that will be seen only by you. Learn more ›
×
You can save this tab as Personal to edit and correct it or add notes. All changes will be seen only by you. Learn more »
launch autoscroll
font size
0
reset
transpose
0
reset
display chords
guitar tuner
edit
Autoscroll
slow
fast
+/-
esc
set tempo
stop
Author
Strumming
There is no strumming pattern for this song yet. and get +5 IQ
"SEASIDE"- THE KOOKS

This is a great song by a great band!
I think both luke and hugh play the same until the last part. I've work Lukes bit out 
i think it's right but i couldn't quite get Hughs i think he just tinkers about with the 
but not sure.

[Part 1]
D#m                          F#
    Do you want to go to the seaside?
B                          C#
I'm not trying to say that everybody wants to go
D#m                   F#
I fell in love at the seaside
B                      C#                 G#          F#
I handled my charm with time and slight of hand

[Part 1]
D#m                          F#
    Do you want to go to the seaside?
B                          C#
I'm not trying to say that everybody wants to go
D#m                   F#
I fell in love at the seaside
B                       C#                    G#          F#
She handled her charm with time and slight of hand

[Part 3]
D#m                          B            C#
      But i'm just trying to love you any kind of way
D#m                         B                      C#   
               F#
      But i find it hard to love you girl when your far away ... away

[Part 4 (guitar 1)]

    D#m
                                   Do you want to go to the seaside?
e|------------------------------------------------------------------|
B|------------------------------------------------------------------|
G|------------------------------------------------------------------|
D|-6---6---6---6---6---6---6---6---6---6---6---6---6---6---6---6----|
A|---8---8---8---8---8---8---8---8---8---8---8---8---8---8---8---8--|
E|------------------------------------------------------------------|

    F#                                  B
       seaside?                I'm  not     trying to  say   that
e|-------------------------------------------------------------------------|
B|-------------------------------------------------------------------------|
G|-------------------------------------------------------------------------|
D|--9----9----9----9----9----9----9----9-----------------------------------|
A|----11---11---11---11---11---11---11-----7---7---7---7---7---7---7---7---|
E|------------------------------------------9---9---9---9---9---9---9---9--|

       everybody     wants      to
e|---------------------------------------|
B|---------------------------------------|
G|---------------------------------------|
D|---------------------------------------|
A|--9----9----9----9----9----9----9----9-|
E|----11---11---11---11---11---11---11---|

   D#m                                                     F#
  go But  I  fell  in  love  at  the                    seaside
e|--------------------------------------------------------------------------|
B|--------------------------------------------------------------------------|
G|----------------------------------9----9----9----9----9----9----9----9----|
D|-6---6---6---6---6---6---6---6------11---11---11---11---11---11---11---11-|
A|---8---8---8---8---8---8---8---8------------------------------------------|
E|--------------------------------------------------------------------------|

                        on  the   seaside
e|-------------------------------------------------------------------------|
B|-------------------------------------------------------------------------|
G|-------------------------------------------------------------------------|
D|---------------------------------9----9----9----9----9----9----9----9----|
A|-7---7---7---7---7---7---7---7-----11---11---11---11---11---11---11---11-|
E|---9---9---9---9---9---9---9---9-----------------------------------------|

                        in  the   seaside
e|-------------------------------------------------------------------------|
B|-------------------------------------------------------------------------|
G|-------------------------------------------------------------------------|
D|---------------------------------9----9----9----9----9----9----9----9----|
A|-7---7---7---7---7---7---7---7-----11---11---11---11---11---11---11---11-|
E|---9---9---9---9---9---9---9---9-----------------------------------------|

            
            
Suggest correction
Creating personal tab
Creating personal tab
You can edit any tab online and save it as your Personal.

You can edit, replace or remove any tab part or add personal notes – all changes will be seen only by you.

Personal tabs can be accessed anytime from any device, even offline.
Learn more »
comments
print report bad tab
4 comments total. Showing first comments.
0 reply
MiniShrink 10 Aug 24, 2006 08:40 AM

The hell? How does this tab get ONE star when tab #1 has 4 stars, and the creator thinks there's a B# chord? This one's completely correct - five stars. (Unfortunately, my voting messed up. I'm sorry about that)

0 reply
NintEndO 863 Sep 01, 2006 12:20 PM

U mixed all ur numbers up on the last bit. u kept saying
|--------------| |--------------|
|-6---6---6----| |-8---8---8----|
|---8---8---8--| when u meant |---6---6---6--|
|--------------| |--------------|

Other than that and a missing G# at the 'far away... away' part its spot on

0 reply
NintEndO 863 Sep 01, 2006 12:22 PM

that's
|---------------|
|--8---8---8----|
|----6---6---6--|
|---------------|
i was trying 2 say.
and switch the numbers for the rest of it as well

guest
You may want to rate the tab now too:
select rating
Wanna post a correction for this tab? Suggest correction