Oops, an error
Loading. Please wait.

See The World bass

version 1
version 1

Whole song

Interactive

6,593 views 12 this week
3 commentsread comments
1 2 3 4 5
x 4
add to favorites
×
Save as Personal and add changes to this tab that will be seen only by you. Learn more ›
×
You can save this tab as Personal to edit and correct it or add notes. All changes will be seen only by you. Learn more »
launch autoscroll
font size
0
reset
guitar tuner
edit
Autoscroll
slow
fast
+/-
esc
set tempo
stop
Author
Difficulty
-----------------------------------------------------------------------
See The World – The Kooks
-----------------------------------------------------------------------

Tabbed By: dannyloughran 

Tuning: Standard (EADG)


Intro: 0:00 - 0:12 - No bass

Chorus: 0:12-0:32

G|------------------------------------------------------|
D|------------------------------------------------------|
A|------------------------------------------------------|
E|3-3--3--x-5---3-3--3--x-5---7-7--7-x-5---7-7--7-x-5---|x2

Verse 1: 0:32-0:44

G|-------------------------------7--7---------------------------------|
D|-----------------------------7------7-------------------------------|
A|---------------------------5----------5-----------------------------|
E|5--5-5--0--0-0--7--7-7--7----------------3--3-3--3-3---3--0-0--0-0-0|

Verse 2: 0:44-0:59

G|--------------------------|
D|--------------------------|
A|--------------------------|
E|-10--10-10--10-10-10--10--|


G|---------------------------------------------------------|
D|---------------------------------------------------------|
A|---------------------------------------------------------|
E|-3---3--3-3-5-7---7--7-7-7-3---3--3-3-5-7---7--7-7-5-3---|x2

Solo: 0:59-1:06

G|------------------------------------------------------|
D|------------------------------------------------------|
A|------------------------------------------------------|
E|3-3--3--x-5---3-3--3--x-5---7-7--7-x-5---7-7--7-x-5---|

Chorus: 1:06-1:14

G|------------------------------------------------------|
D|------------------------------------------------------|
A|------------------------------------------------------|
E|3-3--3--x-5---3-3--3--x-5---7-7--7-x-5---7-7--7-x-5---|

G|--------------------------------|
D|--------------------------------|
A|--------------------------------|
E|3-3--3--x-5---3-3--3—7\---------|

Verse 1: 1:14-1:26

G|-------------------------------7--7---------------------------------|
D|-----------------------------7------7-------------------------------|
A|---------------------------5----------5-----------------------------|
E|5--5-5--0--0-0--7--7-7--7----------------3--3-3--3-3---3--0-0--0-0-0|

Verse 2: 1:26-1:44

G|-------------------------------------------------------------------|
D|-------------------------------------------------------------------|
A|-------------------------------------------15-15---17-15-----------|
E|-10--10-10--10-10-10--10--10-10---17--17-----------------17\-------|


G|---------------------------------------------------------|
D|---------------------------------------------------------|
A|---------------------------------------------------------|
E|-3---3--3-3-5-7---7--7-7-7-3---3--3-3-5-7---7--7-7-5-3---|x2

Breakdown: 1:44-1:56

G|-------------------------------|
D|-------------------------------|
A|-------------------------------|
E|--------------------/15~~~-----| x3

G|-------------------------------|
D|-------------------------------|
A|-------------------------------|
E|-15-15-15-15-15-15-15-15-etc---|

Outro: 1:56-2:38

G|-----------------------------------------------|
D|-----------------------------------------------|
A|-----------------------------------------------|
E|-15--15--15-15-15-15-14-14-14-10--10-10-10-----| x8

Outro 2: 2:20-2:38

G|-----------------------------------------------|
D|-----------------------------------------------|
A|-.-.-.-.-.-.-.-.-.-.-.-.-.-.-.-.---------------|
E|-3-3-3-3-7-7-7-7-3-3-3-3-7-7-7-7---------------|

G|-----------------------------------------------|
D|-----------------------------------------------|
A|-.-.-.-.-.-.-.-.-.-.-.-.-----------------------|
E|-3-3-3-3-7-7-7-7-3-3-3-3-7~~~~~~---------------|

Key:
/ = Slide up
. = Staccato
x = Palm mute

Any questions, comments or mistakes, just let me know!

Please rate! Cheers

            
            
Suggest correction
Creating personal tab
Creating personal tab
You can edit any tab online and save it as your Personal.

You can edit, replace or remove any tab part or add personal notes – all changes will be seen only by you.

Personal tabs can be accessed anytime from any device, even offline.
Learn more »
comments
print report bad tab
3 comments total.
0 reply
rkwakman 10 Apr 21, 2008 04:54 AM

i think there is a fold in the first line. I think you have to play that line 3 times instead of 2 times.

I dont know that for sure:)
Greeetzzzz Rkwakman

0 reply
dannyloughran 430 Sep 17, 2008 02:31 PM

Yer your right, well, kind of :P

I think its played 3 and a half times through, cant believe I missed that!

Thanks for letting me know.

0 reply
Fraztastick 10 Jan 07, 2010 12:43 PM

Yep, three and a half times on that first bit and watch the slight tempo change in the first verse.

Otherwise, great tab! Thanks

guest
You may want to rate the tab now too:
select rating
Wanna post a correction for this tab? Suggest correction