Oops, an error
Loading. Please wait.

She Moves In Her Own Way tab

version 2
version 2

Whole song

Interactive

Video

6,449 views 1 this week
4 commentsread comments
1 2 3 4 5
2 more votes to show rating
add to favorites
×
Save as Personal and add changes to this tab that will be seen only by you. Learn more ›
×
You can save this tab as Personal to edit and correct it or add notes. All changes will be seen only by you. Learn more »
launch autoscroll
font size
0
reset
how to read this tab
guitar tuner
edit
Autoscroll
slow
fast
+/-
esc
set tempo
stop
Author
Difficulty
I decided to tab the song in power tabs because it's easier to read imo.
This is what i've come up with so far and i'm pretty sure this is quite right. You can 
your own tempo, i've just wrote a tempo that suits the song really good ;D

Band: The Kooks
Song: She Moves In Her Own Way
Tuning: Standard

Intro
|----------------------------------------------------------|
|-----------------------5-5-5------------------------5-5-5-|
|-----------------------5-5-5------------------------5-5-5-|
|-5--5--5-5-5-5--5-5-5--x-x-x--5--5--5-5-5-5--5-5-5--x-x-x-|
|-5--5--5-5-5-5--5-5-5--3-3-3--5--5--5-5-5-5--5-5-5--3-3-3-|
|-3--3--3-3-3-3--3-3-3---------3--3--3-3-3-3--3-3-3--------|

Verse
|---------------------------------------------------------|
|---------------------------------------------------------|
|---------------5--5--5-5-5-5----------------------5--5-5-|
|-5--5--5-5-5-5-5--5--5-5-5-5-7--7--7-7-7-7-9--9-x-5--5-5-|
|-5--5--5-5-5-5-3--3--3-3-3-3-7--7--7-7-7-7-9--9-x-3--3-3-|
|-3--3--3-3-3-3---------------5--5--5-5-5-5-7--7-x--------|

Chorus
|----------------------------------------------------|
|----------------------------------------------------|
|--------------7--7-7--7-7---------------5--5s7--7-7-|
|-5--5-5--5-5--7--7-7--7-7--7--7-7--7-7--5--5s7--7-7-|
|-5--5-5--5-5--5--5-5--5-5--7--7-7--7-7--3--3s5--5-5-|
|-3--3-3--3-3---------------5--5-5--5-5--------------|

|----------------------------------------------------|
|----------------------------------------------------|
|-9--9-9--9-9--5--5-5--5-5---------------5--5s7--7-7-|
|-9--9-9--9-9--5--5-5--5-5--7--7-7--7-7--5--5s7--7-7-|
|-7--7-7--7-7--3--3-3--3-3--7--7-7--7-7--3--3s5--5-5-|
|---------------------------5--5-5--5-5--------------|

Riff
|---------------------------|
|---------------------------|
|---------------------------|
|-5--5--5-5-5-5--5-5-5--5-5-|
|-5--5--5-5-5-5--5-5-5--5-5-|
|-3--3--3-3-3-3--3-3-3--3-3-|

Bridge
|-------------------------------------------------------|
|-------------------------------------------------------|
|-9--9--9-9-9-9-7--7--7-7-7-7-----5--5-5----------------|
|-9--9--9-9-9-9-7--7--7-7-7-7-9-x-5--5-5--5-5-5-5-5--5--|
|-7--7--7-7-7-7-5--5--5-5-5-5-9-x-3--3-3--5-5-5-5-5--5--|
|-----------------------------7-x---------3-3-3-3-3--3--|

Guitar behind solo
|-----------------------------------------------------------------|
|-----------------------------------------------------------------|
|-9-9-9-9-9-9-9-9---------------------------------5-5-5-5-5-5-5-5-|
|-9-9-9-9-9-9-9-9-5-5-5-5-5-5-5-5-7-7-7-7-7-7-7-7-5-5-5-5-5-5-5-5-|
|-7-7-7-7-7-7-7-7-5-5-5-5-5-5-5-5-7-7-7-7-7-7-7-7-3-3-3-3-3-3-3-3-|
|-----------------3-3-3-3-3-3-3-3-5-5-5-5-5-5-5-5-----------------|

|-----------------------------------------------------------------|
|-----------------------------------------------------------------|
|-9-9-9-9-9-9-9-9---------------------------------5-5-5-5-7-7-7-7-|
|-9-9-9-9-9-9-9-9-5-5-5-5-5-5-5-5-7-7-7-7-7-7-7-7-5-5-5-5-7-7-7-7-|
|-7-7-7-7-7-7-7-7-5-5-5-5-5-5-5-5-7-7-7-7-7-7-7-7-3-3-3-3-5-5-5-5-|
|-----------------3-3-3-3-3-3-3-3-5-5-5-5-5-5-5-5-----------------|

End
|---|
|---|
|---|
|-5-|
|-5-|
|-3-|
  let ring

Order of apperance:
Solo *1
Verse *5
Chorus *1
Riff *1
Verse *5
Chorus *1
Riff *1
Bridge *4
Guitar behind solo *1
Chorus *2
End *1

OBS. The solo can be taken from the other tabbers! :)

-----------------------------------------------------------------------------

Lyrics

So at my show on Monday
I was hopin'that someday
You'd be on your way to better things
It's not about your make-up
Or how you try to shape up
To these tiresome paper dreams
Paper dreams honey

So now you pour your heart out
You're telling me you're far out
Not about to lie down for your cause
But you don't pull my strings
Cause I'm a better man
Moving on to better things

But uh oh, oh I love her because
She moves in her own way
But uh oh, oh she came to my show
Just to hear about my day

And at the show on Tuesday
She was in her mindset
Tempered firs and spangled boots
Looks are deceiving
Making me believe it
And these tiresome paper dreams
Paper dreams honey, yeah

So won't you go far
Tell me you're a keeper
Not about to lie down for your cause
But you don't pull my strings because
Cause I'm a better man
Moving on to better things

But uh oh, oh I love her because
She moves in her own way
But uh oh, oh she came to my show
Just to hear about my day

Yes our wish's that we never made it
Through all the summers
We kept them up instead of
Kicking us back down to the suburbs
Yes our wish's that we never made it
Through all the summers
We kept them up instead of
Kicking us back down to the suburbs

But uh oh, oh I love her because
She moves in her own way
But uh oh, oh she came to my show
Just to hear about my day

But uh oh, oh I love her because
She moves in her own way
But uh oh, oh she came to my show
Just to hear about my day

-----------------------------------------------------------------------------

That's it! Enjoy :>

Tabbed by cronan89 (cronan)
Suggest correction
Creating personal tab
Creating personal tab
You can edit any tab online and save it as your Personal.

You can edit, replace or remove any tab part or add personal notes – all changes will be seen only by you.

Personal tabs can be accessed anytime from any device, even offline.
Learn more »
Give kudos to tab author, rate the tab!
1 2 3 4 5
comments
print report bad tab
4 comments total. Showing first comments.
0 reply
cronan 167 Jan 12, 2007 12:54 PM

did anyone like my tab? :)

0 reply
El Fisho 10 Jun 05, 2007 09:39 AM

Playing it as power chords is pretty wrong for the song. Should really be barres to get that full sound

0 reply
cronan 167 Jul 25, 2007 03:33 PM

Yeah it's wrong for the real version by the kooks but this is my rock version :)
It's so boring to be a copycat and play EXACTLY like the original, i tried to spice things up a bit by changing the mode of the song!
And i succeeded :P Now you have a great rock song.

guest
You may want to rate the tab now too:
select rating
Wanna post a correction for this tab? Suggest correction