Oops, an error
Loading. Please wait.

Sofa Song bass

version 1
version 1

Whole song

Interactive

10,825 views 3 this week
1 commentread comment
1 2 3 4 5
x 6
add to favorites
×
Save as Personal and add changes to this tab that will be seen only by you. Learn more ›
×
You can save this tab as Personal to edit and correct it or add notes. All changes will be seen only by you. Learn more »
launch autoscroll
font size
0
reset
guitar tuner
edit
Autoscroll
slow
fast
+/-
esc
set tempo
stop
Difficulty
intermediate
The Kooks - Sofa Song Bass Tab

G|----------------------------------------------------------------|
D|----------------------------------------------------------------|
A|--------------------------------------------------------9-9-9-9-|
E|--------------------------------------------12\-9-9-9-9---------|
	
G|----------------------------------------------------------------|
D|----------------------------------------------------------------|
A|----------------7-7-7-7-------------------------7-7-7-7---------|
E|4-4-4-4-7-7-7-7---------7---9---4-4-4-4-7-7-7-7---------7---9---|

The city...       I just...	  Me and my...    Are going out...

G|----------------------------------------------------------------|
D|----------------------------------------------------------------|
A|----------------7-7-7-7-------------------------7-7-7-7---------|
E|4-4-4-4-7-7-7-7---------7---9---4-4-4-4-7-7-7-7---------7---9---|

And I will...	Just to get...    And catch...	  On the other...

G|----------------------------------------------------------------|
D|----------------------------------------------------------------|
A|----------------9-9-9-9-------------------------9-9-9-9---------|
E|4-4-4-4-7-7-7-7---------9-9-9-9-4-4-4-4-7-7-7-7---------9-9-9-9-|

Won’t you...	  At the side...  Oh won’t you...

G|----------------------------------------------------------------|
D|----------------------------------------------------------------|
A|----------------7-7-7-7-------------------------7-7-7-7---------|
E|4-4-4-4-7-7-7-7---------7---9---4-4-4-4-7-7-7-7---------7---9---|

G|----------------------------------------------------------------|
D|------------------6-9-6-------8-------------------6-9-6-------8-|
A|----------6-9-6-7---------9-6-------------6-9-6-7---------9-6---|
E|4-------7---------------7-------4-7-6-7-7---------------7-------|

The city...       It got...	  And he tried... But did he...

G|----------------------------------------------------------------|
D|------------------6-9-6-------8-------------------6-9-6-------8-|
A|----------------7---------9-6-------------6-9-6-7---------9-6---|
E|4-4-4-4-7-7-7-7---------7-------4-7-6-7-7---------------7-------|

Won’t you...	At the side...    Oh won’t you...

G|----------------------------------------------------------------|
D|----------------------------------------------------------------|
A|----------------------------------------6-6-6-6---------6-6-6-6-|
E|4-4-4-4-4-4-4-4-4-4-4-4-4-4-4-4-4-4-4-4---------4-4-4-4---------|

				  So here he...   Loaded gun...	

G|----------------------------------------------------------------|
D|------------------------7-7-7-7-----------------6-6-6-6---------|
A|--------6-6-6-6-7-7-7-7-----------------6-6-6-6---------6-6-6-6-|
E|4-4-4-4-------------------------4-4-4-4-------------------------|
 
 Wants my...	  Cash flow...    So here he...	  Loaded gun...

G|----------------------------------------------------------------|
D|------------------------7-7-7-7---------------------------------|
A|--------6-6-6-6-7-7-7-7-----------------------------------------|
E|4-4-4-4-------------------------4-4-7\4-0-0-0-0-4-4-7\4-0-0-0-0-|

Wants my...       Pearls...               I s'pose...     I...            

G|----------------------------------------------------------------|
D|----------------------------------------------------------------|
A|----------------4-4-4-4-----------------------------------------|
E|4-4-7\4-0-0-0-0---------2-2-2-2-4-------------------------------|
          I s'pose...     I suppose I don't know
Suggest correction
Creating personal tab
Creating personal tab
You can edit any tab online and save it as your Personal.

You can edit, replace or remove any tab part or add personal notes – all changes will be seen only by you.

Personal tabs can be accessed anytime from any device, even offline.
Learn more »
comments
print report bad tab
1 comment total.
0 reply
tabfr3ak 10 Sep 10, 2007 09:01 AM

Great tab!!! Nice job...

guest
Wanna post a correction for this tab? Suggest correction