Oops, an error
Loading. Please wait.

Sofa Song tab

version 3
version 3

Whole song

Interactive

14,142 views 24 this week
2 commentsread comments
1 2 3 4 5
x 14
add to favorites
×
Save as Personal and add changes to this tab that will be seen only by you. Learn more ›
×
You can save this tab as Personal to edit and correct it or add notes. All changes will be seen only by you. Learn more »
launch autoscroll
font size
0
reset
how to read this tab
guitar tuner
edit
Autoscroll
slow
fast
+/-
esc
set tempo
stop
Author
Difficulty
Artist: The Kooks
Song: Sofa Song
Album: Inside In/Inside Out
tuning: Standard (eBGDAE)
Tabbed By: Samtaart
this is really a cool song from the kooks, i really love it...
any comments => sampiebratsky@hotmail.com

Intro
e|--4--4--4-4-4-4----0-0--0-0--|
B|--4--4--4-4-4-4----0-0--0-0--|
G|--6--6--6-6-6-6----1-1--1-1--| X3
D|--6--6--6-6-6-6----2-2--2-2--|
A|--6--6--6-6-6-6----2-2--2-2--|
E|--4--4--4-4-4-4----0-0--0-0--|

followed by:

e|--4-4-4-4---2-2-2-2--|
B|--5-5-5-5---2-2-2-2--|
G|--6-6-6-6---3-3-3-3--|
D|--6-6-6-6---4-4-4-4--|
A|--4-4-4-4---4-4-4-4--|
E|------------2-2-2-2--|

Verse:

e|--4--4--4-4-4-4---7-7--7-7-----7--7--7-7-7-7---7-7--6-6--|
B|--4--4--4-4-4-4---7-7--7-7-----9--9--9-9-9-9---7-7--7-7--|
G|--6--6--6-6-6-6---8-8--8-8-----9--9--9-9-9-9---8-8--8-8--|  x4
D|--6--6--6-6-6-6---9-9--9-9-----9--9--9-9-9-9---9-9--8-8--|
A|--6--6--6-6-6-6---9-9--9-9-----7--7--7-7-7-7---9-9--6-6--|
E|--4--4--4-4-4-4---7-7--7-7---------------------7-7-------|

Chorus:

e|--4--4--4-4-4-4---7-7---7-7--2--2--2-2-2-2--4-4--4-4--|
B|--4--4--4-4-4-4---7-7---7-7--2--2--2-2-2-2--6-6--6-6--|
G|--6--6--6-6-6-6---8-8---8-8--3--3--3-3-3-3--6-6--6-6--| x2
D|--6--6--6-6-6-6---9-9---9-9--4--4--4-4-4-4--6-6--6-6--|
A|--6--6--6-6-6-6---9-9---9-9--4--4--4-4-4-4--4-4--4-4--|
E|--4--4--4-4-4-4---7-7---7-7--2--2--2-2-2-2------------|

Solo:

e|------------------------------------------|
B|------------------------------------------|
G|--8--11-8-11-13--13^---15-15-13-11-13-13--|
D|------------------------------------------|
A|------------------------------------------|
E|------------------------------------------|

e|-------------------------------------------------------------------|
B|-------------------------------------------------------------------|
G|-----13-11----11---------------------------------------------------|
D|-----------13----13-11-13-11----11---------------------------------|
A|-----------------------------13----13-11-13-11----11-------14^-11~-|
E|-----------------------------------------------14----14-11---------|

e|--11/12-11-9-----------------------------------9--11--12-11------|
B|-------------12--11-9--11-11--12-12---12-12----------------------|
G|-----------------------------------------------------------------|
D|-----------------------------------------------------------------|
A|-----------------------------------------------------------------|
E|-----------------------------------------------------------------|

Verse:

e|---7-7--7-7-----7--7--7-7-7-7---7-7--6-6--|
B|---7-7--7-7-----9--9--9-9-9-9---7-7--7-7--|
G|---8-8--8-8-----9--9--9-9-9-9---8-8--8-8--|
D|---9-9--9-9-----9--9--9-9-9-9---9-9--8-8--|
A|---9-9--9-9-----7--7--7-7-7-7---9-9--6-6--|
E|---7-7--7-7---------------------7-7-------|

e|--4--4--4-4-4-4---7-7--7-7-----7--7--7-7-7-7---7-7--6-6--|
B|--4--4--4-4-4-4---7-7--7-7-----9--9--9-9-9-9---7-7--7-7--|
G|--6--6--6-6-6-6---8-8--8-8-----9--9--9-9-9-9---8-8--8-8--|
D|--6--6--6-6-6-6---9-9--9-9-----9--9--9-9-9-9---9-9--8-8--|
A|--6--6--6-6-6-6---9-9--9-9-----7--7--7-7-7-7---9-9--6-6--|
E|--4--4--4-4-4-4---7-7--7-7---------------------7-7-------|

Chorus:

e|--4--4--4-4-4-4---7-7---7-7--12--12--12-12-12---7-7-7---6-6-6----|
B|--4--4--4-4-4-4---7-7---7-7--12--12--12-12-12---7-7-7---7-7-7----|
G|--6--6--6-6-6-6---8-8---8-8--13--13--13-13-13---8-8-8---8-8-8----|  x2
D|--6--6--6-6-6-6---9-9---9-9--14--14--14-14-14---9-9-8---8-8-8----|
A|--6--6--6-6-6-6---9-9---9-9--14--14--14-14-14---9-9-9---6-6-6----|
E|--4--4--4-4-4-4---7-7---7-7--12--12--12-12-12---7-7-7------------|

Bridge:

e|------------------|
B|------------------|
G|------------------|
D|------------------|
A|------------------|
E|--444444444....---|

Then there's this bass part...

Then I think:

e|--7-7-7-7----5-5-5-5---|
B|--9-9-9-9----5-5-5-5---|
G|--9-9-9-9----6-6-6-6---|
D|--9-9-9-9----7-7-7-7---|
A|--7-7-7-7----7-7-7-7---|
E|-------------5-5-5-5---|

Chorus:
(bit different)
e|--4-4---4-4-4-----6-6---6-6-----7-7---7-7-7-----6-6---6-6---|
B|--4-4---4-4-4-----7-7---7-7-----7-7---7-7-7-----7-7---7-7---|
G|--6-6---6-6-6-----8-8---8-8-----8-8---8-8-8-----8-8---8-8---|
D|--6-6---6-6-6-----8-8---8-8-----9-9---9-9-9-----8-8---8-8---|
A|--6-6---6-6-6-----6-6---6-6-----9-9---9-9-9-----6-6---6-6---|
E|--4-4---4-4-4-------------------7-7---7-7-7-----------------|


e|--4-4---4-4-4-----6-6---6-6------7-7-7-7----5-5-5-5---|
B|--4-4---4-4-4-----7-7---7-7------9-9-9-9----5-5-5-5---|
G|--6-6---6-6-6-----8-8---8-8------9-9-9-9----6-6-6-6---|
D|--6-6---6-6-6-----8-8---8-8------9-9-9-9----7-7-7-7---|
A|--6-6---6-6-6-----6-6---6-6------7-7-7-7----7-7-7-7---|
E|--4-4---4-4-4-------------------------------5-5-5-5---|

Ending:

The solo guitar plays:

e|-----11------------16\--11----11-----16\--11--------|
B|--9-----12--9--------------12----------------12-9---|
G|----------------------------------------------------|
D|----------------------------------------------------|
A|----------------------------------------------------|
E|----------------------------------------------------|

While the other one plays:

e|--4--4--4-4-4-4----0-0--0-0--|
B|--4--4--4-4-4-4----0-0--0-0--|
G|--6--6--6-6-6-6----1-1--1-1--| x3
D|--6--6--6-6-6-6----2-2--2-2--|
A|--6--6--6-6-6-6----2-2--2-2--|
E|--4--4--4-4-4-4----0-0--0-0--|

followed by:

e|--4-4-4-4---2-2-2-2--|
B|--5-5-5-5---2-2-2-2--|
G|--6-6-6-6---3-3-3-3--|
D|--6-6-6-6---4-4-4-4--|
A|--4-4-4-4---4-4-4-4--|
E|------------2-2-2-2--|

End on:

e|--4--|
B|--4--|
G|--6--|
D|--6--|
A|--6--|
E|--4--|

any comments, mail to sampiebratsky@hotmail.com
in english or nederlands(dutch)

END

            
            
Suggest correction
Creating personal tab
Creating personal tab
You can edit any tab online and save it as your Personal.

You can edit, replace or remove any tab part or add personal notes – all changes will be seen only by you.

Personal tabs can be accessed anytime from any device, even offline.
Learn more »
comments
print report bad tab
2 comments total.
0 reply
Ciaran:D 10 Mar 17, 2009 03:01 PM

i dont know why this is rated 3*, i think this is brilliant:D

guest
You may want to rate the tab now too:
select rating
Wanna post a correction for this tab? Suggest correction