Oops, an error
Loading. Please wait.

Stormy Weather Bass Tab

version 4
version 4

Whole song

391 views 3 this week
no commentswrite comment
1 2 3 4 5
please rate
add to favorites
launch autoscroll
font size
0
reset
guitar tuner
Tab Pro tools
  • play this tab
  • loop segment
  • change instrument
  • show fretboard
  • metronome
×
Best way to learn
"Stormy Weather"
Autoscroll
slow
fast
+/-
esc
set tempo
stop
Contributor
Difficulty
intermediate
Song: Stormy Weather
Artist: The Kooks
Album: Konk
Tuning: Standard

This is my 5th tab. Don't hesitate to email me if you pick up any mistakes. my email is
 shepherds.pie@hotmail.com
Rock on guys c:

(0:00) - (0:37)
G|-----------------------------------------------|
D|------6--------22-22---------------------------|  (x6)
A|--------2--------------------------------------|
E|-12\4-----4-0---------3h4-4-4-4-4444444444-4-4-|

(0:37) - (0:43)
"But it feels like love, love, love..."
|----------------------|
|----------------------|
|----------------------|
|-0h4---00---3h4---3h4-|

(0:43) - (0:51)
"Oh yes it feels like touch, touch, touch..."
|-----------------------------------------------|
|-----------------------------------------------|
|-12\--------------------/4-4-4-4-4-4-4-4-------|
|------4-4-4-4--0-0-00--------------------------|

(0:51) - (1:03)
"I sit around to pass the time..."
|--------------------------------------------|
|---6--------22-22---------------------------| (x2)
|-----2--------------------------------------|
|-4----4-0---------3h4-4-4-4-4444444444-4-4--|

(1:03) - (1:16)
"But it feels like love, love, love..."
|-------------------------------------------|
|-------------------------------------------|
|------2222----------------------2222--7777-|
|-4444------0000/12121212--4444-------------|

(1:16) - (1:29)
"What did I say?..."
|---------------------------------------------|
|---------------------------------------------|
|----------4444--------4444-------------44444-|
|-77777777------444444------444444-0000-------|

(1:29) - (1:42)
"What did I do?..."
|-----------------------------------------|
|-----------------------------------------|
|----------4444-----------------44444444--|
|-77777777------444444-00000000-----------|

(1:42) - (2:08)
|--------------------------------------------|
|---6--------22-22---------------------------| (x4)
|-----2--------------------------------------|
|-4-----4-0---------3h4-4-4-4-4444444444-4-4-|

(2:08) - (2:20)
"But it feels like love, love, love..."
|--------------------------------------|
|--------------------------------------|
|------2222-----------------2222--7777-|
|-4444------00000000---4444------------|

(2:20) - (2:33)
"What did I say?..."
|----------------------------------------------|
|----------------------------------------------|
|----------4444--------4444---------------4444-|
|-77777777------444444------444444---0000------|

(2:33) - (2:49)
"What did I do?..."
|------------------------------------------------------|
|------------------------------------------------------|
|----------4444--------4444-------------------44444444-|
|-77777777------444444------444444---00000000----------|

(2:49) - (3:15)
|--------------------------------------------|
|---6--------22-22---------------------------| (x4)
|-----2--------------------------------------|
|-4----4-0---------3h4-4-4-4-4444444444-4-4--|

(3:15) - (3:28)
"Oh yes it feels like love, love, love.."
|---------------------------------------------|
|---------------------------------------------| (x2)
|-------2222-----------------2222--77777777---|
|-4444-------00000000---4444------------------|

(3:28)- (3:55)
"Oh yes it feels like love, love, love..."
|--------------------------------------------|
|---6--------22-22---------------------------| (x2)
|-----2--------------------------------------|
|-4----4-0---------3h4-4-4-4-4444444444-4-4--|
comments
We did not receive enough feedback on this tab! Please rate:
print report bad tab
1 2 3 4 5
I want to post or [tab]
guest
You may want to rate the tab now too:
select rating
Please do not post tabs as comments. Select "correction" instead!