Oops, an error
Loading. Please wait.

You Dont Love Me bass

version 1
version 1

Whole song

Interactive

2,872 views 1 this week
2 commentsread comments
1 2 3 4 5
2 more votes to show rating
add to favorites
×
Save as Personal and add changes to this tab that will be seen only by you. Learn more ›
×
You can save this tab as Personal to edit and correct it or add notes. All changes will be seen only by you. Learn more »
launch autoscroll
font size
0
reset
guitar tuner
edit
Autoscroll
slow
fast
+/-
esc
set tempo
stop
Author
Difficulty
Artist: The Kooks
Title: You Don't Love Me
Album: INSIDE IN INSIDE OUT
BASS

Hey this is my first tab and i dont even have a bass, im just doing this cos my friend 
wants one put up. So here it is it may not be perfect but it sounds ok to me. The note 
may not be in the EXACT possitions but if you listen to the song its easy to figure out.      DM

G------------------------------------------------------|
D------------------------------------------------------|
A---0----0----0---0---0---0---0------------------------|
E--------------------------------1--1--1--1--1--1--1-3-|
 Oh you don't love me the way that, i love you
 Cause if you did girl you would not, do those things you do
 You kill my heart just to see if, i will rise
 Above your anger and a-bove your lies

A-33----------------|
E------------33-----|
 And all i see of you

A--22----------22-2-3--|
E----------------------|
 Is when your not so busy

A-------------------|
E-33--------00---00-|
 Oh your not so busy

G--------------------------------------------------------|
D--------------------------------------------------------|
A--2---2---2---2----2---2----2---------------------------|
E--------------------------------3--3--3--3--3--3--3-5---|
 And you don't love me the way that, i love you
 Cause if you did girl you would not, do those things you do
 You turned my life around and for that, i am glad
 However much i love you this love, is getting bad

A-2-2-----------------2-2---------|
E---------------------------------|
 And oh my darling you could choose

A--------------------------------|
E-0-0---------------0-0----------|
 The words that only you could use

A-0-0----------------0-0--------0-0---------|
E------------------------------------2--2-2-|
 But you know you'll always be my girl, girl
 I'd take you out just for a bite
 And show you all the city sights
 But you know you'll always be my girl, girl

(FIRST LINE SILENT UNTILL)
                                 HERE
G----------------------------------------------------------|
D----------------------------------------------------------|
A--2---2---2----2----2----2----2---------------------------|
E---------------------------------3--3--3--3--3--3--3-5----|
 But you don't love me the way that, i love you
 Cause if you did boy you would not, do those things you do
 You kill my heart just to see if, i will rise, oh
 Above you anger and a-bove your lies


A-55----------------|
E------------55-----|
 But all i see of you
A--44----------44-4-5--|
E----------------------|
 Is when your not so busy
A----------------------|
E-55--55-------22---22-|
 Oh your not so busy
G------------------------------------------------------|
D------------------------------------------------------|
A---4----4----4---4---4---4---4--2--2--2--2--2--2--2-0-|
E------------------------------------------------------|
                                              Doo, Doo
                                              Do do do
G----------------------------------------------------|
D----------------------------------------------------|
A-4---4---4---4--4---4--4--2--2--2--2--2--2--2-0-----|
E----------------------------------------------------|
 If you don't love me you don't care        (Woman)
 You don't love me you don'y care           (Woman)
 Cause you don't love me you don't care     (Woman)
 You don't love me you don't care           (Woman)


I think/Hope its ok please rate
DM

            
            
Suggest correction
Creating personal tab
Creating personal tab
You can edit any tab online and save it as your Personal.

You can edit, replace or remove any tab part or add personal notes – all changes will be seen only by you.

Personal tabs can be accessed anytime from any device, even offline.
Learn more »
Give kudos to tab author, rate the tab!
1 2 3 4 5
comments
print report bad tab
2 comments total.
0 reply
G.Gamble 31 Apr 01, 2006 10:05 AM

Unnecessary comment at the start.alrite-ish tab but know one cares about ur lack of bass and your m8s, we just want the tab - not you life story,
good try

0 reply
bassbassbase 10 Jun 03, 2007 10:57 AM

not a bad tab 4 ur first go

guest
You may want to rate the tab now too:
select rating
Wanna post a correction for this tab? Suggest correction