Oops, an error
Loading. Please wait.

You Dont Love Me bass

version 3
version 3

Whole song

Interactive

2,615 views 1 this week
no commentswrite comment
1 2 3 4 5
x 4
add to favorites
×
Save as Personal and add changes to this tab that will be seen only by you. Learn more ›
×
You can save this tab as Personal to edit and correct it or add notes. All changes will be seen only by you. Learn more »
launch autoscroll
font size
0
reset
guitar tuner
edit
Autoscroll
slow
fast
+/-
esc
set tempo
stop
Author
Difficulty
-------------------------------------------------------------------------------
			     YOU DON'T LOVE ME - The Kooks
-------------------------------------------------------------------------------

Tabbed By : Joel B.

Tuning: Standard

What a nice song.
I think the other tab's aren't that difficult or they are wrong.
I hope this is good enough.
Much fun and don't forget to rate ;)


Verse:
..Oh you don't love me the way that I love you..
G|-----------------------------------------|
D|-----------------------------------------|
A|-------------------5-5-5-5-5-5--5--------| x2
E|-5-5-5-5-5-5-5-55----------------3-3h5---|

..You kill my heart just to see if I will rise..
G|-------------------------------7------7------7---------|
D|----7-----7------7------7------------------------------|
A|--------------------------0h5----0h5----0h5----0h5-----| x2
E|-5---0h5----0h5----0h5----------------------------3----|

Chours:
..And all I see of you..
G|-------------------------------------------------------------------------|
D|-------------------------------------------------------------------------|
A|-3-3--3--------2-2--2--2-2-4-5-------------------------------------------|
E|--------3-3--3-----------------3-3--3-3-3-2-0-0-00-0-0-00-0-0-00-0-0-00--|

Verse:
 ..And you don't love me the way that I love you..
G|-----------------------------------------|
D|-----------------------------------------|
A|-------------------7-7-7-7-7-7--7--------| x2
E|-7-7-7-7-7-7-7-77----------------5-5h7---|

..You turned my life around and for that I am glad..
G|-------------------------------9------9------9---------|
D|----9-----9------9------9------------------------------|
A|--------------------------0h7----0h7----0h7----0h7-----| x2
E|-7---0h7----0h7----0h7----------------------------5----|

Bridge:
..And oh my darling you could chose..
G|-------------------------------------------------------------------|
D|-------------------------------------------------------------------|
A|---------------------------------7x--7---7x--7---12x-12-10x--10----|
E|-7x--7---7x--7---7x--7---7x--7-------------------------------------|

..I'd take you out just for a bite..
G|------------------------------9\-----9\----------------------------|
D|----9\----9\----9\----9\-------------------------------------------|
A|--------------------------0/7----0/7----12-12-12-12-10-10-10-10----|
E|-0/7---0/7---0/7---0/7---------------------------------------------|
..be my girl, girl..
G|------------------------------------------|
D|------------------------------------------|
A|-10101010101010-1010-\--------------------|
E|------------------------7-7-7-7-7-7-7-7-7-|

Verse:  ..I love you, oh..
G|-------------------------------------------------------|
D|-------------------------------------------------------|
A|-0h7-7-7-7-7-7-7--------------------0h7-7-7-7-7-7-7-7--|
E|----------------5-0h7-7-7-7-7-7-7-7------------------5-|
                                                   .. and above your lies..
G|-------------------------------------------------------------------------|
D|-------------------------------------------------------------------------|
A|------------------0h7-7-7-7-7-7-7--------------------0h7-7-7-7-7-7-77-55-|
E|0h7-7-7-7-7-7-7-7----------------5-0h7-7-7-7-7-7-7-7---------------------|

Chours:
..But all I see of you..
G|-------------------------------------------------------------------------|
D|-------------------------------------------------------------------------|
A|-5-5--5--------4-4--4--4-4-6-7-------------------------------------------|
E|--------5-5--5-----------------5-5--5-5-5-4-2-2-22-2-2-22-2-2-22-2-2-22--|

Verse:
G|--------------------------------------|
D|-----------------0h4-4-4-4-4-4-4------|x4
A|-0h4-4-4-4-4-4-4----------------2-----|
E|--------------------------------------|

End:
G|--------------------------------------|
D|--------------------------------------|
A|-4-~-~-~-~-~-~-~-~-~-~-~-~-~-~-~-~-~-~|x2
E|--------------------------------------|

G|-------------|
D|-------------|
A|-------------|
E|-9-7--9--\---|

| /  slide up
| \  slide down
| h  hammer-on
| p  pull-off
| ~  vibrato
| +  harmonic
| x  Mute note
===============================================================================

            
            
Suggest correction
Creating personal tab
Creating personal tab
You can edit any tab online and save it as your Personal.

You can edit, replace or remove any tab part or add personal notes – all changes will be seen only by you.

Personal tabs can be accessed anytime from any device, even offline.
Learn more »
comments
print report bad tab
guest
You may want to rate the tab now too:
select rating
Wanna post a correction for this tab? Suggest correction