Oops, an error
Loading. Please wait.

Little Does She Know Bass Tab

version 2
version 2

Whole song

7 views 1 this week
no commentswrite comment
1 2 3 4 5
2 more votes to show rating
add to favorites
launch autoscroll
font size
0
reset
guitar tuner
Autoscroll
slow
fast
+/-
esc
set tempo
stop
Help us to improve Ultimate-Guitar.com Take our survey!
×
Author
Little Does She Know
Single released by The Kursaal Flyers in 1976. Reached #14 UK charts.
Bass Richie Bull. Tab by bass50611.  Yet another top Glam Rock Song.
Still sounding good after 40 years. Straight forward and easy to play.

Intro:
G|-------------------------------------------|
D|-------------------------------------------|
A|-7--7-7-----7--7-7-----7--7-7-----7--7-7---|
E|--------7----------7----------7----------7-|

Chorus 1:
G|----------------------------------------------------------------------|
D|-------------------7--7-7---7--7-7---9--9-9---9--9-9---7--7-----------|
A|-7--7-7---7--7-7--------------------------------------------7---------|
E|---------------------------------------------------------------7--7-7-|

G|-----------------------------------------------------------------------|
D|-------------------7--7-7---7--7-7---9--9-9---9--9-9---7--7------------|
A|-7--7-7---7--7-7--------------------------------------------7---7--7-7-|
E|-----------------------------------------------------------------------|

Verse 1:
G|---------------------------------------------------------------------|
D|---------------------------------------------------------------------|
A|------------------9--9-9---9--9-9------------------------------------|
E|-9--9-9---9--9-9-------------------7--7-7---7--7-7---5--5-5---7--7-7-|

Chorus 2:
G|-----------------------------------------------------------------------|
D|-------------------7--7-7---7--7-7---9--9-9---9--9-9---7--7------------|
A|-7--7-7---7--7-7--------------------------------------------7---7--7-7-|
E|-----------------------------------------------------------------------|

Verse 2:
G|----------------------------------------------------------------------|
D|------------------------------------------------------7--7-7---7--7-7-|
A|-------------------------------------9--9-9---9--9-9------------------|
E|-9--9-9---9--9-9---5--5-5---5--5-5------------------------------------|

G|---------------------------------------------------------------------|
D|---------------------------------------------------------------------|
A|------------------------------------9--9-9---9--9-9------------------|
E|-9--9-9---9--9-9---5--5-5---5--5-5-------------------7--7-7---7--7-7-|

Chorus 3:
G|----------------------------------------------------------------------|
D|-------------------7--7-7---7--7-7---9--9-9---9--9-9---7--7-----------|
A|-7--7-7---7--7-7--------------------------------------------7---------|
E|---------------------------------------------------------------7--7-7-|

G|-----------------------------------------------------------------------|
D|-------------------7--7-7---7--7-7---9--9-9---9--9-9---7--7------------|
A|-7--7-7---7--7-7--------------------------------------------7---7--7-7-|
E|-----------------------------------------------------------------------|

Verse 3:
G|----------------------------------------------------------------------|
D|------------------------------------------------------7--7-7---7--7-7-|
A|-------------------------------------9--9-9---9--9-9------------------|
E|-9--9-9---9--9-9---5--5-5---5--5-5------------------------------------|

G|---------------------------------------------------------------------|
D|---------------------------------------------------------------------|
A|------------------------------------9--9-9---9--9-9------------------|
E|-9--9-9---9--9-9---5--5-5---5--5-5-------------------7--7-7---7--7-7-|

Interlude: (Key Change)                                (Play This Bit x2)
G|--------------------------------------------------------------------|
D|------------------9--9-9---9--9-9-----------------------------------|
A|-9--9-9---9--9-9------------------------------------------9---------|
E|-----------------------------------9--9-9---9--9-9---7--7----9--9-9-|

Chorus 4:
G|---------------------------------------------------------------------|
D|---------------------------------------------------------------------|
A|-9--9-9---9--9-9-------------------------------------------9---------|
E|------------------7--7-7---7--7-7---9--9-9---9--9-9---7--7----9--9-9-|

Outro:                                               (Repeat To Fade/End)
G|---------------------------------------------------------------------|
D|---------------------------------------------------------------------|
A|-9--9-9---9--9-9-------------------------------------------9---------|
E|------------------7--7-7---7--7-7---9--9-9---9--9-9---7--7----9--9-9-|


Suggest correction
Give kudos to tab author, rate the tab!
1 2 3 4 5
comments
print report bad tab
guest
You may want to rate the tab now too:
select rating
Wanna post a correction for this tab? Suggest correction