Oops, an error
Loading. Please wait.

The L Word Tab

5,420 views 6 this week
no commentswrite comment
1 2 3 4 5
1 last vote to show rating
add to favorites
launch autoscroll
font size
0
reset
how to read this tab
guitar tuner
Autoscroll
slow
fast
+/-
esc
set tempo
stop
Help us to improve Ultimate-Guitar.com Take our survey!
×
Author
Difficulty
novice
Th L Word Theme Song by Betty.
This is the Theme song from The L word. I once watched the show and now I'm
addicted and i have season 1 to 5. Season 6 isn't released in the Netherlands yet so...
But back to the music:)

E|-2-1-0-------2-1-0---------2-1-0-------2-1-0--------|
B|-------3-2-0-------3-0-----------3-2-0-------3-0----|
G|----------------------------------------------------|
D|----------------------------------------------------|
A|----------------------------------------------------|
E|----------------------------------------------------|

                                             Fm
E|---2-0-2-1-0---2-0-2-----2-0---2-0---2-0-5-2--------|
B|-0-----------0---------------3-----3-------2--------|
G|-------------------------------------------3--------|
D|-------------------------------------------4--------|
A|-------------------------------------------4--------|
E|-------------------------------------------2--------|

   Bm              Fm          G         A
E|-2----------------2----------3---------5-------|
B|-3----------------2----------3---------5-------|
G|-4----------------3----------4---------6-------|
D|-4----------------4----------5---------7-------|
A|-2----------------4----------5---------7-------|
E|-X----------------2----------3---------5-------|
   Girls in tight dresses who drag with mustashes.

   Bm            Fm         G                A
E|-2-------------2----------3----------------5---|
B|-3-------------2----------3----------------5---|
G|-4-------------3----------4----------------6---|
D|-4-------------4----------5----------------7---|
A|-2-------------4----------5----------------7---|
E|-X-------------2----------3----------------5---|
  Chicks driving fast, ingeneus with long lashes.

   G         A                  G        Fm
E|-3---------5------------------3--------2------|
B|-3---------5------------------3--------2------|
G|-4---------6------------------4--------3------|
D|-5---------7------------------5--------4------|
A|-5---------7------------------5--------4------|
E|-3---------5------------------3--------2------|
  Women who long, love, lost. Women who give

   G           A             G        Fm(hold)
E|-3-----------5-------------3-----------2------|
B|-3-----------5-------------3-----------2------|
G|-4-----------6-------------4-----------3------|
D|-5-----------7-------------5-----------4------|
A|-5-----------7-------------5-----------4------|
E|-3-----------5-------------3-----------2------|
  This is the way, it's the way that we live.

   Bm              Fm          G         A
E|-2----------------2----------3---------5-------|
B|-3----------------2----------3---------5-------|
G|-4----------------3----------4---------6-------|
D|-4----------------4----------5---------7-------|
A|-2----------------4----------5---------7-------|
E|-X----------------2----------3---------5-------|
  Talking, laughing, loving, breathing, finding, fucking, crying, drinking writing, 
losing, cheating, kissing, thinking, dreaming.

   G           A             G        Fm(hold)
E|-3-----------5-------------3-----------2------|
B|-3-----------5-------------3-----------2------|
G|-4-----------6-------------4-----------3------|
D|-5-----------7-------------5-----------4------|
A|-5-----------7-------------5-----------4------|
E|-3-----------5-------------3-----------2------|
  This is the way, it's the way that we live

             G           A(hold)
E|-----------3-----------5--------|
B|-----------3-----------5--------|
G|-----------4-----------6--------|
D|-----------5-----------7--------|
A|-----------5-----------7--------|
E|-----------3-----------5--------|
  It's the way that we live

     Bm(hold))
E|---2---------|
B|---3---------|
G|---4---------|
D|---4---------|
A|---2---------|
E|---X---------|
    and love!


Good luck!
Tabbed by Lisa
Suggest correction
Give kudos to tab author, rate the tab!
1 2 3 4 5
comments
print report bad tab
guest
You may want to rate the tab now too:
select rating
Wanna post a correction for this tab? Suggest correction